Song name
# A B C D E F G H I J K L M N O P Q R S T U V W X Y Z

Boy And Bear - Feeding Line tab

Artist: Boy & Bear
Song: Feeding Line

My space:
http://www.myspace.com/boyandbearmusic

Chords
   A1  A2  Bm  F#m  D   E   F#11  Dsus2
E:-0---5---2----2---5---0----------0----|
B:-2---5---3----2---7---0----0-----3----|
G:-2---6---4----2---7---1----3-----2----|
D:-2---7---4----4---7---2----4-----0----|
A:-0---7---2----4---5---2----4----------|
E:-----5--------2-------0----0----------|


Intro chords

(electric kicks in on the second F#m)

A1 Bm   F#m

A1 Bm   F#m     D A2      D A2    Bm    F#m


Verse (Repeat)

A1 Bm   F#m     D A2      D A2    Bm    F#m


Pre Chorus x2

E  F#11   Dsus2


Slight RiffS under the Dsus2

 First time
E:--------------------------|
B:-7--7/9--10--10/12--------|
G:-6-------9----------------|
D:--------------------------|
A:--------------------------|
E:--------------------------|


 Second time
E:--------------------------|
B:-7--7/5-5-----------------|
G:-6---------6-6/4-2-4-2----|
D:--------------------------|
A:--------------------------|
E:--------------------------|



Chorus

A1  Bm   F#m
A1  Bm   F#m

then verse chords (starting at F#m)


Electric lead bit (first chorus only)

E:----------------------------------------------------------------------2-|
B:------------2-------0-2---0-2---5------0-2--0-2---5--2---2-----------2--|
G:-2-4--2-4----------------------------------------------4------------2---|
D:-----------------------------------------------------------4-------4----|
A:------------------------------------------------------------------4-----|
E:-----------------------------------------------------------------2------|



Whistling / bridge chords

F#m       Bm
A1        Bm


That's the basics of the different bits, they get mixed around a little during the tune.

nick_cam1980@yahoo.com
Tap to rate this tab
 
# A B C D E F G H I J K L M N O P Q R S T U V W X Y Z