Song name
# A B C D E F G H I J K L M N O P Q R S T U V W X Y Z

Boy And Bear - Fall At Your Feet tab

-------------------------------------------------------------------------------
			     FALL AT YOUR FEET - Boy and Bear
-------------------------------------------------------------------------------
Tabbed by: Jimmy Lynch
Email: jimmy.lynch@live.com.au

Tuning: Standard (Capo on 3rd Fret)

Intro (Notes Relative to Capo)

Am

e ------0------------------|
B --------3-1-------1h3----|
G --2-2-------2-0h2--------|
D -------------------------|
A -------------------------|
E -------------------------|

e --------0----------------|
B ----------3-1-------1h3--|
G --2-2-2----------0h2-----|
D --------------0h2--------|
A -------------------------|
E -------------------------|

e ------0------------------|
B --------3-1-------1h3----|
G --2-2-------2-0h2--------|
D -------------------------|
A -------------------------|
E -------------------------|

e -------------------------|
B ------1-------3-----3----|
G --2-2---2-2/4---4/5---5--|
D -------------------------|
A -------------------------|
E -------------------------|

Fill (0:16)

e -------13~---------------|
B --10~------10~-----------|
G -------------------------|
D -------------------------|
A -------------------------|
E -------------------------|

Verse Chords (0:50)

Am	C	Bm	F	

e ----0----0----2----x------|
B ----1----1----3----1------|
G ----2----0----4----2------|
D ----2----2----4----3------|
A ----0----3----2----3------|
E --------------x----x------|

Repeat Fill on Am (1:11)

e -------------------------|
B --------1---------1------|
G ----0h2-------0h2--------|
D ----------2---------2----|
A -------------------------|
E -------------------------|

Chorus Chords (1:22)

C	G	Am	F

e ----0----3----0----x-----|
B ----1----3----1----1-----|
G ----0----0----2----2-----|
D ----2----0----2----3-----|
A ----3----2----0----3-----|
E ---------3---------x-----|

Fill (2:07)

	Bm

e --2---------------------|
B --3--------3---2---0----|
G --4----------4---4---4--|
D --4------4--------------|
A --2----2----------------|
E --x---------------------|

	E

e --0----------------------|
B --0----------------------|
G --1--------1---2---1-----|
D --2------2---2---2-------|
A --2------------------2---|
E --0----0-----------------|

	Am

e --0----------------------|
B --1--------1---0---------|
G --2----------2---2---2---|
D --2------2---------2-----|
A --0----0-----------------|
E -------------------------|

	C

e --0----------------------|
B --1--------1---0---------|
G --0----------2---2---2---|
D --2------2---------2-----|
A --3----------------------|
E -------------------------|

Fill (2:22)

Bm x 2

E x 2

Am	C x 2	F x 8

e -----------------0--0----|
B -----------------1--1----|
G ----0h2p0--------0--0----|
D ----------2-0----2--2----|
A -----------------3--3----|
E -------------------------|

Fill (3:04)

e ---3---3---3---3---3-----|
B -----1---1---1---1---1---|
G -------------------------|
D -------------------------|
A -------------------------|
E -------------------------|

Bridge Chords (3:25)

Am	G	D	F	G

e ---0----3-----2---x---3---|
B ---1----3-----3---1---3---|
G ---2----0-----3---2---0---|
D ---2----0-----0---3---0---|
A ---0----2---------3---2---|
E --------3---------x---3---|

Fill (3:34)

e -----------3-0-----0-----|
B -------1-3-----1-3-------|
G -----2-------------------|
D -------------------------|
A -------------------------|
E -------------------------|

Please email any questions or feedback to jimmy.lynch@live.com.au

Also check out my video tutorial for this song at YouTube.com
Tap to rate this tab
 
# A B C D E F G H I J K L M N O P Q R S T U V W X Y Z