Song name
# A B C D E F G H I J K L M N O P Q R S T U V W X Y Z

Boy And Bear - Rabbit Song tab

-----------------------------------|
-4/5-----5-------4-------0---------|
-----------------------------------|
-----6-------6-------4-------4-----|
-4-------0-------2-----------------|
-------------------------2---------|




-----------------------------------|
-0/2-----2---4---5-------4---------|
-----------------------------------|
-----4-------4-------6-------4-----|
---------0-------4-------2---------|
-2---------------------------------|


(Repeat x4)
Tap to rate this tab
# A B C D E F G H I J K L M N O P Q R S T U V W X Y Z