Song name
# A B C D E F G H I J K L M N O P Q R S T U V W X Y Z

Boy And Bear - Part Time Believer tab

3rd Tab by me. Contact drucemaster@hotmail.com for any enquiries.

Intro/main riff:
e|------------------------------------------|
B|------------------------------------------|
G|------------------------------------------|
D|-6\7/6--4---------------6/7-9-9-4---------|
A|-----------5-----4--2---------------------|
E|------------------------------------------|

During the verses:
e|----------------------------------------------------------------------|
B|------------------------7---------------------------7-----------------|
G|-----------8----------7----6---6-7p6-----8--------7---6---6-7p6-------|
D|-4~------9--9-11---------7---7-------7-9--9-11-------7--7-------7-----|
A|----------------------------------------------------------------------|
E|----------------------------------------------------------------------|

Pre-chorus:
e|------------------------------------------|
B|----9---9--9-10-12-10-9-------------------|
G|---9---9----------------------------------|
D|--9---9-----------------------------------|
A|-7---7------------------------------------|
E|------------------------------------------|

Chorus:
e|------------------------------------------|
B|-----7---------5--------5-----------------|
G|---7--7--6---------4------4---5-----------|
D|------------7----6---6------6-------------|
A|------------------------------------------|
E|------------------------------------------|

Repeat intro, verse, pre chorus and chorus

Bridge: (just chords strummed/picked)
e|-----2---0-------2---0-------0-------------------|
B|-3---3---2---3---3---2---3---2---4---------------|
G|-4---2---2---4---2---2---4---2---4---------------|
D|-4-------2---4-------2---4-------4---------------|
A|-------------------------------------------------|
E|-------------------------------------------------|

Outro (fade out):
e|-10---7-----------------------------------|
B|--------7-7-9-9-9^10-9-7------------------|
G|------------------------------------------|
D|------------------------------------------|
A|------------------------------------------|
E|------------------------------------------|
Tap to rate this tab
# A B C D E F G H I J K L M N O P Q R S T U V W X Y Z