Song name
# A B C D E F G H I J K L M N O P Q R S T U V W X Y Z

Boy Hits Car - Mr Loh tab

Artist: Boy Hits Car
Album: My Animal
Song: Mr. Loh
Tuning: Drop D (e B G D A D) High to Low

Intro/Chorus:
------------------------------------------------|
------------------------------------------------|
------------------------------------------------|
-0--0-12-12-0--0-12-12-0--0-12-12-0--0-12----12-|
-0--0-12-12-0--0-11-11-0--0-12-12-0--0-11----12-|
-0--0-12-12-0--0-11-11-0--0-12-12-0--0-11----12-|
Verse: Acoustic
-----------------------------|
-----------------------------|
-----------------------------|
-7--7-5--5-4-4-7--7-5--5-4-4-|
-----------------------------|
-----------------------------|
Verse: Distortion
-----------------------------|
-----------------------------|
-----------------------------|
-7-------------7/8\7---------|
-----------------------------|
-----------------------------|
Pre-Chorus:Distortion
-----------------------------|
-----------------------------|
-----------------------------|
-----------------------------|
-5--5-5-3--0-2-5--5-5-3--0-2-|
-----------------------------|
Chorus:
Verse:
Pre-Chorus:
Chorus:
Break:
-----------------------------|
-----------------------------|
-7--7-7-9-9-9101010-12-12-12-|
-x--x-x-x-x-x-x-x-x--x--x--x-|
-5--5-5-7-7-7-8-8-8-10-10-10-|
-----------------------------|
Verse:
Chorus:
Break: out
Thats it.  Question corrections email greg at 
Gutterball438@aol.com
Tap to rate this tab
# A B C D E F G H I J K L M N O P Q R S T U V W X Y Z