Song name
# A B C D E F G H I J K L M N O P Q R S T U V W X Y Z

Boy Kill Boy - Back Again tab

(0:00)
N.C.
E|--------------------------------|--------------------------------|
B|--------------------------------|--------------------------------|
G|--------------------------------|--------------------------------|
D|--------7-7-------------7-7-----|--------7-7-------------7-7-----|
A|----5-5-------------5-5---------|----5-5-------------5-5---------|
E|7-7---------5-5-7-7---------5-5-|7-7---------5-5-7-7-----5-5-----|



(0:06)
Bm
E|----2---5-----2~----------------|----2---5-----2~----------------|
B|--3-------3---------------------|--3-------3---------------------|
G|4-----4-----4-------------------|4-----4-----4-------------------|
D|--------------------------------|--------------------------------|
A|--------------------------------|--------------------------------|
E|--------------------------------|--------------------------------|

G                 Em               G               Em
E|--------------------------------|--------------------------------|
B|--------------------------------|--------------------------------|
G|--------------------------------|--------------------------------|
D|--------------------------------|--------------------------------|
A|--------------------------------|--------------------------------|
E|3-3-3-3-3-3-3-3-0-0-0-0-0-0-0-0-|3-3-3-3-3-3-3-3-0-0-0-0-0-0-0-0-|
(You can fret this with your thumb so you can keep the Bm chord position)

Bm
E|----2---5-----2~----------------|----2---5-----2~----------------|
B|--3-------3---------------------|--3-------3---------------------|
G|4-----4-----4-------------------|4-----4-----4-------------------|
D|--------------------------------|--------------------------------|
A|--------------------------------|--------------------------------|
E|--------------------------------|--------------------------------|

G                 Em               G               Em
E|10----10----10--7-----7-----7---|10----10----10--7-----7-----7---|
B|--12----12----12--8-----8-----8-|--12----12----12--8-----8-----8-|
G|----12----12--------9-----9-----|----12----12--------9-----9-----|
D|--------------------------------|--------------------------------|
A|--------------------------------|--------------------------------|
E|--------------------------------|--------------------------------|



(0:28) - Same as (0:00) 



(0:34)
Bm                                 F#sus4          F#
E|--------------------------------|--------------------------------|
B|3-3-3-3-3-3-3-3-3-3-3-3-3-3-3-3-|--------------------------------|
G|4-4-4-4-4-4-4-4-4-4-4-4-4-4-4-4-|4-4-4-4-4-4-4-4-3-3-3-3-3-3-3-3-|
D|4-4-4-4-4-4-4-4-4-4-4-4-4-4-4-4-|4-4-4-4-4-4-4-4-4-4-4-4-4-4-4-4-|
A|2-2-2-2-2-2-2-2-2-2-2-2-2-2-2-2-|4-4-4-4-4-4-4-4-4-4-4-4-4-4-4-4-|
E|--------------------------------|2-2-2-2-2-2-2-2-2-2-2-2-2-2-2-2-|

  G                                D               F#
E|--------------------------------|--------------------------------|
B|--------------------------------|--------------------------------|
G|4-4-4-4-4-4-4-4-4-4-4-4-4-4-4-4-|--------------------------------|
D|5-5-5-5-5-5-5-5-5-5-5-5-5-5-5-5-|7-7-7-7-7-7-7-7-8-8-8-8-8-8-8-8-|
A|5-5-5-5-5-5-5-5-5-5-5-5-5-5-5-5-|9-9-9-9-9-9-9-9-9-9-9-9-9-9-9-9-|
E|3-3-3-3-3-3-3-3-3-3-3-3-3-3-3-3-|5-5-5-5-5-5-5-5-6-6-6-6-6-6-6-6-|

  Bm                               F#sus4          F# 
E|--------------------------------|--------------------------------|
B|3-3-3-3-3-3-3-3-3-3-3-3-3-3-3-3-|--------------------------------|
G|4-4-4-4-4-4-4-4-4-4-4-4-4-4-4-4-|4-4-4-4-4-4-4-4-3-3-3-3-3-3-3-3-|
D|4-4-4-4-4-4-4-4-4-4-4-4-4-4-4-4-|4-4-4-4-4-4-4-4-4-4-4-4-4-4-4-4-|
A|2-2-2-2-2-2-2-2-2-2-2-2-2-2-2-2-|4-4-4-4-4-4-4-4-4-4-4-4-4-4-4-4-|
E|--------------------------------|2-2-2-2-2-2-2-2-2-2-2-2-2-2-2-2-|

  G               Em               G               Em
E|--------------------------------|--------------------------------|
B|--------------------------------|--------------------------------|
G|4-4-4-4-4-4-4-4-0-0-0-0-0-0-0-0-|4-4-4-4-4-4-4-4-0-0-0-0-0-0-0-0-|
D|5-5-5-5-5-5-5-5-2-2-2-2-2-2-2-2-|5-5-5-5-5-5-5-5-2-2-2-2-2-2-2-2-|
A|5-5-5-5-5-5-5-5-2-2-2-2-2-2-2-2-|5-5-5-5-5-5-5-5-2-2-2-2-2-2-2-2-|
E|3-3-3-3-3-3-3-3-0-0-0-0-0-0-0-0-|3-3-3-3-3-3-3-3-0-0-0-0-0-0-0-0-|



(0:56) - Same as (0:00)



(1:02) - Same as (0:06)



(1:25) - Same as (0:00)



(1:31) - Same as (0:34)



(1:53)
  Bm7             G                Bm              G
E|----5-----5-----3-----3-----3---|----2-----2-----3-----3-----3---|
B|--3---3-----3-----3-----3-----3-|--3---3-----3-----3-----3-----3-|
G|4-------4-----4-----4-----4-----|4-------4-----4-----4-----4-----|
D|--------------------------------|--------------------------------|
A|--------------------------------|--------------------------------|
E|--------------------------------|--------------------------------|



(2:16)
  D
E|--------------------------------|--------------------------------|
B|--------------------------------|--------------------------------|
G|7-7-7-7-7-7-7-7-9-9-9-9-9-9-9-9-|11111111111111111212121212121212|
D|x-x-x-x-x-x-x-x-x-x-x-x-x-x-x-x-|x-x-x-x-x-x-x-x-x-x-x-x-x-x-x-x-|
A|5-5-5-5-5-5-5-5-7-7-7-7-7-7-7-7-|9-9-9-9-9-9-9-9-1010101010101010|
E|--------------------------------|--------------------------------|

E|--------------------------------|--------------------------------|
B|10101010101010101212121212121212|15151515151515151515151515151515|
G|x-x-x-x-x-x-x-x-x-x-x-x-x-x-x-x-|x-x-x-x-x-x-x-x-x-x-x-x-x-x-x-x-|
D|7-7-7-7-7-7-7-7-9-9-9-9-9-9-9-9-|12121212121212121212121212121212|
A|--------------------------------|--------------------------------|
E|--------------------------------|--------------------------------|



(2:27) - Same as (0:34) - Staccato Bm chord.



(2:50) - Same as (0:00)
Tap to rate this tab
 
# A B C D E F G H I J K L M N O P Q R S T U V W X Y Z