Song name
# A B C D E F G H I J K L M N O P Q R S T U V W X Y Z

Boy Kill Boy - Cival Sin tab

Intro/Chorus
e|------------------------------------------------------|
B|------------------------------------------------------|
G|--------10------12-----9-----10-----7-----8-----9-----|
D|-7------10-x8---12-x8--9-x8--10-x8--7-x8--8-x8--9-x8--|
A|-7-x8---8-------10-----7-----8------5-----6-----7-----|
E|-5----------------------------------------------------|

e|-----------------------------------------------------------------------------------|
B|-----------------------------------------------------------------------------------|
G|-----------------------------------------------------------------------------------|
D|-7-----10-----4--------------------------------------------------------------------|
A|-7-----10-----4----x4--------------------------------------------------------------|
E|-5-----8------2--------------------------------------------------------------------|

e|-3-3-3-3-3-3-3-3-3-3-3-3-3-3-3--|
B|-5-5-3-3-5-5-3-3-5-5-3-3-5-5-3--|
G|--------------------------------|
D|--------------------------------|
A|--------------------------------|
E|--------------------------------|

Verse
e|----------------------------------------------------------------------------------|
B|----------------------------------------------------------------------------------|
G|----------------------------------------------------------------------------------|
D|-2----7----10---9-----------------------------------------------------------------|
A|-2----7----10---9-----------------------------------------------------------------|
E|-0----5----8----7-----------------------------------------------------------------|

Verse into chorus, then play the chorus(the first time this bit it plays it once then 
into the chorus, the second time it is played it gets played three times)

e|--------------------------------------------------------------|
B|--------------------------------------------------------------|
G|-9----10--------------------------------------9------10-------|
D|-9----10----7-----10--9--5--(1st time x1)-----9------10---x2--|
A|-7----8-----7-----10--9--5--(2nd time X3)-----7------8--------|
E|------------5-----8---7--3------------------------------------|
Bit after chorus, then go back to verse

e|-3-3-3-3-3-3-3-3-3-3-3-3-3-3-3-3---x2--|
B|-5-5-3-3-5-5-3-3-5-5-3-3-5-5-3-3-------|
G|---------------------------------------|
D|---------------------------------------|
A|---------------------------------------|
E|---------------------------------------|

Outro
e|---------------------------------------------------------------------------------|
B|---------------------------------------------------------------------------------|
G|---------------------------------------------------------------------------------|
D|-7---10---4----------------------------------------------------------------------|
A|-7---10---4----------------------------------------------------------------------|
E|-5---8----2----------------------------------------------------------------------|

Order to play the song in -
Intro (which is  the first three bits of the tab)
Verse
Verse into chorus
Bit after chorus
Verse
Verse into chorus
Chorus
Then play the second bit of the tab
Chorus
Chorus
Outro
Tap to rate this tab
# A B C D E F G H I J K L M N O P Q R S T U V W X Y Z