Guitaretab - guitar tabs
Song name
# A B C D E F G H I J K L M N O P Q R S T U V W X Y Z

Boy Sets Fire - Empire tab

-------------------------------------------------------------------------------
			     EMPIRE - Boysetsfire intro
-------------------------------------------------------------------------------
this is correct i been to a few shows at the froint  and this is how they play the song
i was at there last UK show in Newport Wales, i love this sone so much and never seen a tab for this

Tabbed by:simo666
Email: ibanrzrg@yahoo.com

Tuning:Drop-d
 Intro clean with slight flange

[ Tab from: http://www.guitaretab.com/b/boy-sets-fire/159960.html ]
e|---3----3----x--------x-----x----------------------------------------------------|
B|---3----3----x--------x-----x----------------------------------------------------|
G|---5----5----10---9---10----12---------------------------------------------------|
D|---5----5----10---10--10----10---------------------------------------------------|
A|---3----0----8----8---8-----8----------------------------------------------------|
D|---3----0----x----x---x-----x----------------------------------------------------|
Related for Empire tab