Guitaretab - guitar tabs
Song name
# A B C D E F G H I J K L M N O P Q R S T U V W X Y Z

Boy Sets Fire - 10 And Counting Acoustic tab

Boysetsfire: “10 and counting” - acoustic
Tabbed by Lars Bilke,

I think this is correct because I watched the dvd. There are only some slight variations sometimes.
Just listen to the rhythm and play the chords on it! Have fun with this great song!
[ Tab from: ]
E --0--------0--------0----0-0-0-0--------|
H --5--------3--------8----7-8-7-5--------|
G --0--------0--------0----0-0-0-0--------|
D --x--------x--------x----x-x-x-x--------|
A 3-3------2-2------7-7----5-5-3-3--------|
E ----------------------------------------|

E ------0----------0----------0----0----0--------|
H -----12---------12----------8---10---13--------|
G ------0----------0----------0----0----0--------|
D ------x----------x----------x----x----x--------|
A --10-10--------9-9--------7-7----9---10--------|
E -----------------------------------------------|
Related for 10 And Counting Acoustic tab