Song name
# A B C D E F G H I J K L M N O P Q R S T U V W X Y Z

Boy - Drive Darling tab

This is a great song of the the band BOY.
I figured it out by listening to the live version at tvnoir.



Capo 2nd fret



Verse 1 

|------------------------------------------------------------------|
|--------------0---------------0---------------0----------------0--|
|--------0---------------0---------------0---------------0---------|
|-----5---------------5---------------5---------------5------------|
|--7--------7------7--------7------7--------7------7--------7------|
|------------------------------------------------------------------|

|-----------------------------------------------------------------|
|--------------0---------------0---------------0---------------0--|
|--------0---------------0---------------0---------------0--------|
|-----2---------------2---------------2---------------2-----------|
|--3--------3------3--------3------3--------3------3--------3-----|
|-----------------------------------------------------------------|

play both bars 4 times



Chorus 1

|-------------------------------------------------------------------|
|---8-----8----------8-----8---------7-----7---------7-----7--------|
|------0-----0----------0-----0---------0-----0---------0-----0-----|
|---------------9----------------9---------------7---------------7--|
|--10---------------10---------------9---------------9--------------|
|-------------------------------------------------------------------|

|--7-----7---------7-----7---------3-----3---------3-----3--------|
|-----0-----0---------0-----0---------0-----0---------0-----0-----|
|--------------0---------------0---------------0---------------0--|
|-----------------------------------------------------------------|
|--7---------------7---------------3---------------3--------------|
|-----------------------------------------------------------------|

Play both bars 2 times



Verse 2

|------------------------------------------------------------------|
|--------------0---------------0---------------0----------------0--|
|--------0---------------0---------------0---------------0---------|
|-----5---------------5---------------5---------------5------------|
|--7--------7------7--------7------7--------7------7--------7------|
|------------------------------------------------------------------|

|-----------------------------------------------------------------|
|--------------0---------------0---------------0---------------0--|
|--------0---------------0---------------0---------------0--------|
|-----2---------------2---------------2---------------2-----------|
|--3--------3------3--------3------3--------3------3--------3-----|
|-----------------------------------------------------------------|


Play both bars 3 times, then play the following two bars 2 times:

|-----------------------------------------------------------------|
|--------------0---------------0---------------0---------------0--|
|--------0---------------0---------------0---------------0--------|
|-----4---------------4---------------2---------------2-----------|
|--5--------5------5--------5------3--------3------3--------3-----|
|-----------------------------------------------------------------|

|--------------------------------------------------------------------------|
|-----------------0-----------------0-----------------0-----------------0--|
|----------0-----------------0-----------------0-----------------0---------|
|-------9-----------------9-----------------9-----------------9------------|
|---10--------10------10--------10------10--------10------10--------10-----|
|--------------------------------------------------------------------------|


Chorus 2

|-------------------------------------------------------------------|
|---8-----8----------8-----8---------7-----7---------7-----7--------|
|------0-----0----------0-----0---------0-----0---------0-----0-----|
|---------------9----------------9---------------7---------------7--|
|--10---------------10---------------9---------------9--------------|
|-------------------------------------------------------------------|

|--7-----7---------7-----7---------3-----3---------3-----3--------|
|-----0-----0---------0-----0---------0-----0---------0-----0-----|
|--------------0---------------0---------------0---------------0--|
|-----------------------------------------------------------------|
|--7---------------7---------------3---------------3--------------|
|-----------------------------------------------------------------|

Play both bars 4 times


Bridge

|-----------------------------------------------------------------|
|--------------0---------------0---------------0---------------0--|
|--------0---------------0---------------0---------------0--------|
|-----2---------------2---------------2---------------2-----------|
|--0--------0------0--------0------0--------0------0--------0-----|
|-----------------------------------------------------------------|

|-----------------------------------------------------------------|
|--------------0---------------0---------------0---------------0--|
|--------0---------------0---------------0---------------0--------|
|-----2---------------2---------------2---------------2-----------|
|--3--------3------3--------3------3--------3------3--------3-----|
|-----------------------------------------------------------------|

|-----------------------------------------------------------------|
|--------------0---------------0---------------0---------------0--|
|--------0---------------0---------------0---------------0--------|
|-----2---------------2---------------2---------------2-----------|
|--0--------0------0--------0------0--------0------0--------0-----|
|-----------------------------------------------------------------|

|-----------------------------------------------------------------|
|--------------0---------------0---------------0---------------0--|
|--------0---------------0---------------0---------------0--------|
|-----4---------------4---------------4---------------4-----------|
|--5--------5------5--------5------5--------5------5--------5-----|
|-----------------------------------------------------------------|

|------------------------------------------------------------------|
|--------------0---------------0---------------0----------------0--|
|--------0---------------0---------------0---------------0---------|
|-----5---------------5---------------5---------------5------------|
|--7--------7------7--------7------7--------7------7--------7------|
|------------------------------------------------------------------|

|-----------------------------------------------------------------|
|--------------0---------------0---------------0---------------0--|
|--------0---------------0---------------0---------------0--------|
|-----2---------------2---------------2---------------2-----------|
|--3--------3------3--------3------3--------3------3--------3-----|
|-----------------------------------------------------------------|

|------------------------------------------------------------------|
|--------------0---------------0---------------0----------------0--|
|--------0---------------0---------------0---------------0---------|
|-----5---------------5---------------5---------------5------------|
|--7--------7------7--------7------7--------7------7--------7------|
|------------------------------------------------------------------|

|-----------------------------------------------------------------|
|--------------0---------------0---------------0---------------0--|
|--------0---------------0---------------0---------------0--------|
|-----4---------------4---------------4---------------4-----------|
|--5--------5------5--------5------5--------5------5--------5-----|
|-----------------------------------------------------------------|



Chorus till end

|-------------------------------------------------------------------|
|---8-----8----------8-----8---------7-----7---------7-----7--------|
|------0-----0----------0-----0---------0-----0---------0-----0-----|
|---------------9----------------9---------------7---------------7--|
|--10---------------10---------------9---------------9--------------|
|-------------------------------------------------------------------|

|--7-----7---------7-----7---------3-----3---------3-----3--------|
|-----0-----0---------0-----0---------0-----0---------0-----0-----|
|--------------0---------------0---------------0---------------0--|
|-----------------------------------------------------------------|
|--7---------------7---------------3---------------3--------------|
|-----------------------------------------------------------------|



 Have fun!
Tap to rate this tab
# A B C D E F G H I J K L M N O P Q R S T U V W X Y Z