Song name
# A B C D E F G H I J K L M N O P Q R S T U V W X Y Z

Boy - Railway tab

-------------------------------------------------------------------------------
                             Railway - Boy
-------------------------------------------------------------------------------
Tabbed by: tookthepolaroid
E-mail: katkalo@hotmail.co.uk

Tuning: Standard



e|---------------------------------------------------------------------------|
B|-----3----3------3-------3-----------3----3--------3------3----------------|
G|--0----------0--------3-----------0-----------0--------3-------------------|
D|---------------------------------------------------------------------------|
A|---------------------------------------------------------------------------|
E|---------------------------------------------------------------------------|


                F                                      C
e|---------------------------------------------------------------------------|
B|--------1----1--------1------1--------------1-----1------1-----------------|
G|--------2----2--------2------2--------------0-----0------0------3----------|
D|----3-------------3---------------------------------------------2----------|
A|---------------------------3-------------3------------3------3-------------|
E|---------------------------------------------------------------------------|

repeat throughout the full song




************************************

| /   slide up
| \   slide down
| h   hammer-on
| p   pull-off
| ~   vibrato
| +   harmonic
| x   Mute note
| b   Bend
| pb  Pre-bend
| br  Bend release
| pbr Pre-bend release
| brb Bend release bend

************************************
Tap to rate this tab
# A B C D E F G H I J K L M N O P Q R S T U V W X Y Z