Song name
# A B C D E F G H I J K L M N O P Q R S T U V W X Y Z

Boy - Drive Darling tab

Artist: BOY (Sonja Glass and Valeska Steiner)
Album: Mutual Friends
Year: 2011

I figured this out while watching one of their videos on 
Youtube titled "Boy Drive Darling live bei students.ch". 
However, I've interpreted it in my own way and tabbed 
this out for only ONE guitar, instead of two. 
This version is much simpler than the others and 
pretty close to the original but it is not 
EXACTLY what the 2 ladies play.  

All chords relative to capo
Capo 2 if you want to match the official acoustic video. 
Valeska uses Capo 1 in this version.

Verse 1

|----------------------------------|
|----------------------------------|
|-----0------0------0------0-------|
|-------9------9------9------9-----|
|--10-----10-----10-----10---------|
|----------------------------------|

Repeat bar 2 times

You close the door and start the motor 

|-----------------------------|
|-----------------------------|
|----0-----0-----0-----0------|
|------0-----0-----0-----0----|
|--7-----7-----7-----7--------|
|-----------------------------|

I roll the window down

|-----------------------------|
|-----------------------------|
|-----0------0------0------0--|
|-------9------9------9------9|
|--10-----10-----10-----10----|
|-----------------------------|

I raised my hand and waved goodbye 

|-----------------------------|
|-----------------------------|
|----0-----0-----0-----0------|
|------0-----0-----0-----0----|
|--7-----7-----7-----7--------|
|-----------------------------|

to neighbourhood queens and clowns and 

|-----------------------------|
|-----------------------------|
|-----0------0------0------0--|
|-------9------9------9------9|
|--10-----10-----10-----10----|
|-----------------------------|

children in the front yard

|-----------------------------|
|-----------------------------|
|----0-----0-----0-----0------|
|------0-----0-----0-----0----|
|--7-----7-----7-----7--------|
|-----------------------------|

they hide and seek and laugh


|-----------------------------|
|-----------------------------|
|-----0------0------0------0--|
|-------9------9------9------9|
|--10-----10-----10-----10----|
|-----------------------------|

I can almost hear you thinking

|-----------------------------|
|-----------------------------|
|----0-----0-----0-----0------|
|------0-----0-----0-----0----|
|--7-----7-----7-----7--------|
|-----------------------------|

How could these days go by so fast


Chorus:

|------------------------------|-----------------|-7-7---7-7--------------|
|------8-8---8-8---------------|----7-7---7-7----|-------------8-8---8-8--|
|----------0-----0-------------|-----0-----0-----|-----0-----0-----0-----0|
|------------------------------|-----------------|------------------------|
|------------------------------|-----------------|------------------------|
|------------------------------|-----------------|------------------------|

And the rearview could picture     what we leave    behind

|--------------------------7-7---7-7--------------|
|--8-8---8-8---7-7---7-7---------------8-8---8-8--|
|------0-----0-----0-----0-----0-----0-----0-----0|
|-------------------------------------------------|
|-------------------------------------------------|
|-------------------------------------------------|

Drive darling, drive darling, drive darling, drive darling, drive


Verse 2 

|-------------------------------------------------------|
|-------------------------------------------------------|
|-----0------0------0------------0-----0-----0-----0----|
|-------9------9------9------------0-----0-----0-----0--|
|--10-----10-----10-----10-9---7-----7-----7-----7------|
|-------------------------------------------------------|

The rest is the same as verse 1

Bridge: 

|--------------------------|
|--------------------------|
|------0-----0-----0-----0-|
|----2-----2-----2-----2---|
|--0-----0-----0-----0-----|
|--------------------------|

And when we arr-

|--------------------------|
|--------------------------|
|------0-----0-----0-----0-|
|----2-----2-----2-----2---|
|--3-----3-----3-----3-----|
|--------------------------|

ive, the hardest of good-

|--------------------------|
|--------------------------|
|------0-----0-----0-----0-|
|----2-----2-----2-----2---|
|--0-----0-----0-----0-----|
|--------------------------|

byes, you will dry my 

|--------------------------|
|--------------------------|
|------0-----0-----0-----0-|
|----4-----4-----4-----4---|
|--5-----5-----5-----5-----|
|--------------------------|

eyes, 

|--------------------------|
|--------------------------|
|----0-0---0-0---0-0---0-0-|
|--------------------------|
|--7-----7-----7-----7-----|
|--------------------------|

Somehow, you're always by my

|--------------------------|
|--------------------------|
|------0-----0-----0-----0-|
|----4-----4-----4-----4---|
|--5-----5-----5-----5-----|
|--------------------------|

side, the one who holds my

|--------------------------|
|--------------------------|
|------0-----0-----0-----0-|
|----2-----2-----2-----2---|
|--3-----3-----3-----3-----|
|--------------------------|

kite, and watches over 

|--------------------------|
|--------------------------|
|------0-----0-----0-----0-|
|----4-----4-----4-----4---|
|--5-----5-----5-----5-----|
|--------------------------|

all my flights


Chorus:

|--------------------------7-7---7-7--------------|
|--8-8---8-8---7-7---7-7---------------8-8---8-8--|
|------0-----0-----0-----0-----0-----0-----0-----0|
|-------------------------------------------------|
|-------------------------------------------------|
|-------------------------------------------------|

|--------------------------7-7---7-7--------------|
|--8-8---8-8---7-7---7-7---------------8-8---8-8--|
|------0-----0-----0-----0-----0-----0-----0-----0|
|-------------------------------------------------|
|-------------------------------------------------|
|-------------------------------------------------|

Drive darling, drive darling, drive darling, drive darling, drive
Tap to rate this tab
# A B C D E F G H I J K L M N O P Q R S T U V W X Y Z