Song name
# A B C D E F G H I J K L M N O P Q R S T U V W X Y Z

Boy - Little Numbers tab

-------------------------------------------------------------------------------
                             LITTLE NUMBERS - Boy
-------------------------------------------------------------------------------
Tabbed by: bigbobbyboogie
E-mail: bigbobbyboogie@yahoo.ca

This is not the piano album version. This is the live acoustic guitar version.
Watch the acoustic version at www.youtube.com/watch?v=TGHx6RTa8s8
I have not filled in all the strumming, but the chords are here and they are
correct. Listen to the song and work on your timing.

Tuning: Standard - capo 4th fret

Em       022000
Dmaj11   054030
Asus2    002200
C        032010
G        320000


Intro:
e|0-------x-------0-------|0-------x-------0-------|
B|0-------3-------0-------|0-------3-------0-------|
G|0-------0-------2-------|0-------0-------2-------|
D|2-------4-------2-------|2-------4-------2-------|
A|2-------5-------0-------|2-------5-------0-------|
E|0-------x-------x-------|0-------x-------x-------|
  

Verse 1:
  Waited for your          To release me…
  Em                       Em
e|0-----------------------|0-----------------------|
B|0-----------------------|0-----------------------|
G|0-----------------------|0-----------------------|
D|2-----------------------|2-----------------------|
A|2-----------------------|2-----------------------|
E|0-----------------------|0-----------------------|

  I've re-arranged         but time         you
  Em                       Asus2            C
e|0-----------------------|0----------------0------|
B|0-----------------------|0----------------1------|
G|0-----------------------|2----------------0------|
D|2-----------------------|2----------------2------|
A|2-----------------------|0----------------3------|
E|0-----------------------|x----------------x------|

Verse 2:
  Looking      cars    by    spring  promises  outside
  Em           Dmaj11  Asus2 Em      Dmaj11     Asus2
e|0------------x-------0----|0--------x---------0--------|
B|0------------3-------0----|0--------3---------0--------|
G|0------------0-------2----|0--------0---------2--------|
D|2------------4-------2----|2--------4---------2--------|
A|2------------5-------0----|2--------5---------0--------|
E|0------------x-------x----|0--------x---------x--------|


  Red cars     rare  realize  wonder          like
  Em           Dmaj11  Asus2  C               Dmaj11
e|0------------x-------0---|--0----------------x--------|
B|0------------3-------0---|--1----------------3--------|
G|0------------0-------2---|--0----------------0--------|
D|2------------4-------2---|--2----------------4--------|
A|2------------5-------0---|--3----------------5--------|
E|0------------x-------x---|--0----------------x--------|


Chorus, part 1:
  Seven   they could be    seven    I know yours   
  G       Dmaj11           Dmaj11     C
e|3--------x---------------|x---------0-----------------|
B|0--------3---------------|3---------1-----------------|
G|0--------0---------------|0---------0-----------------|
D|0--------4---------------|4---------2-----------------|
A|2--------5---------------|5---------3-----------------|
E|3--------x---------------|x---------0-----------------|

Chorus, part 2:
  Woah-oh     all the   things…   be, woah-oh    feel   every heart
  Em         Dmaj11     G      F# Em            Dmaj11     G       F#
e|0-----------x---------3--------|0--------------0---------3---------|
B|0-----------3---------0--------|0--------------3---------0---------|
G|0-----------0---------0--------|0--------------0---------0---------|
D|2-----------4---------0--------|2--------------4---------0---------|
A|2-----------5---------2--------|2--------------5---------2---------|
E|0-----------x---------3------2-|0--------------x---------3-------2-|


  beat, woah-oh    rebel   could  true.   These   could be    for you
  Em              Dmaj11   G C B  Asus2   Asus2      C             Em
e|0----------------x-------1-----|0-------0----------0-------------0-|
B|0----------------3-------0-----|0-------0----------1-------------0-|
G|0----------------0-------0-----|2-------2----------0-------------0-|
D|2----------------4-------0-----|2-------2----------2-------------2-|
A|2----------------5-------2-3-2-|0-------0----------3-------------2-|
E|0----------------x-------3-----|x-------x----------x-------------0-|

Verse 3, same chords as Verse 2.
Repeat chords for Chorus, part 1 twice.
Repeat chords for Chorus, part 2.


Bridge:
                                                          I read your name on 
e|-------------------------------|-------------------------------------------|
B|-------------------------------|-------------------------------------------|
G|-------------------------------|-------------------------------------------|
D|-------------------------------|-------------------------------------------|
A|-------------2---3-3-2---------|-------------------2--3--3--2--------------|
E|-0---2---3-------------3-3-2---|-0------2------3-----------------3---3---2-|

  Is there a cure                I read your name on 
e|-------------------------------|-------------------------------------------|
B|-------------------------------|-------------------------------------------|
G|-------------------------------|-------------------------------------------|
D|-------------------------------|-------------------------------------------|
A|-------------2---3-3-2---------|-------------------2--3--3--2--------------|
E|-0---2---3-------------3-3-2---|-0------2------3-----------------3---3---2-|

  Is there a cure       for me at all    at all
                                  Dmaj11      Em
e|-------------------------------|x-----------0-|
B|-------------------------------|3-----------0-|
G|-------------------------------|0-----------0-|
D|-------------------------------|4-----------2-|
A|-------------2---3-3-2---------|5-----------2-|
E|-0---2---3---------------------|x-----------0-|


Straight into Chorus, part 2.

 Woah-oh                          woah-oh  
  Em          Dmaj11    G      F# Em             Dmaj11    G      F#
e|0-----------x---------3--------|0--------------0---------3---------|
B|0-----------3---------0--------|0--------------3---------0---------|
G|0-----------0---------0--------|0--------------0---------0---------|
D|2-----------4---------0--------|2--------------4---------0---------|
A|2-----------5---------2--------|2--------------5---------2---------|
E|0-----------x---------3------2-|0--------------x---------3-------2-|

  woah-oh                         These    could be             lucky
  Em            Dmaj11     G C B  Asus2   Asus2      C             C
e|0--------------x---------1-----|0-------0----------0-------------0-|
B|0--------------3---------0-----|0-------0----------1-------------1-|
G|0--------------0---------0-----|2-------2----------0-------------0-|
D|2--------------4---------0-----|2-------2----------2-------------2-|
A|2--------------5---------2-3-2-|0-------0----------3-------------3-|
E|0--------------x---------3-----|x-------x----------x-------------x-|

  These    could be    lucky             for you
  Asus2     Asus2      C
e|0---------0----------0--------------|x
B|0---------0----------1--------------|x
G|2---------2----------0--------------|x
D|2---------2----------2--------------|x
A|0---------0----------3--------------|x
E|x---------x----------x--------------|x
Tap to rate this tab
# A B C D E F G H I J K L M N O P Q R S T U V W X Y Z