Guitaretab - guitar tabs
Song name
# A B C D E F G H I J K L M N O P Q R S T U V W X Y Z

Boyce Avenue - On My Way tab

----------------------------------------------------------------------------
			     SONG NAME  On My Way
----------------------------------------------------------------------------
Tabbed by:  Tyler Cash	
Email:  SLPBasketballer9@yahoo.com

This is a much easier tuning for the song, but produces the same effect.

Tuning: D G C F A d (Full Step Down)

Intro:
d|-0-------0---------0-------0---0-|
A|-0-------0---------0-------0---0-|
F|-1-------4---------2-------6---4-|  (Raked)
C|-2-------4---------2-------6---4-|
G|-2-------2---------0-------4---2-|
D|---------------------------------|

Verse 1:
d|-0-------0---------0-------0---0-|
A|-0-------0---------0-------0---0-|
F|-1-------4---------2-------6---4-|  (Raked) x2
C|-2-------4---------2-------6---4-|
G|-2-------2---------0-------4---2-|
D|---------------------------------|

Pre Chorus:
d|-0-------0---------0-------0-----|
A|-0-------0---------0-------0-----|
F|-2-------1---------6-------4-----|  x2
C|-2-------2---------6-------4-----|
G|-0-------2---------4-------2-----|
D|---------------------------------|

d|-0-----------------0-------0-----|
A|-0-----------------0-------0-----|
F|-2-----------------6-------4-----|  x2
C|-2-----------------6-------4-----|
G|-0-----------------4-------2-----|
D|---------------------------------|


Verse 2:
d|-0-------0---------0-------0---0-|
A|-0-------0---------0-------0---0-|
F|-1-------4---------2-------6---4-|  (Raked) x2
C|-2-------4---------2-------6---4-|
G|-2-------2---------0-------4---2-|
D|---------------------------------|
[ Tab from: http://www.guitaretab.com/b/boyce-avenue/168791.html ]
Pre Chorus:
d|-0-------0---------0-------0-----|
A|-0-------0---------0-------0-----|
F|-2-------1---------6-------4-----|  x2
C|-2-------2---------6-------4-----|
G|-0-------2---------4-------2-----|
D|---------------------------------|


d|-0-----------------0-------0-----|
A|-0-----------------0-------0-----|
F|-2-----------------6-------4-----|  x2
C|-2-----------------6-------4-----|
G|-0-----------------4-------2-----|
D|---------------------------------|


Chorus:
d|-0-------0---------0-------0-----|
A|-0-------0---------0-------0-----|
F|-1-------4---------6-------4-----|  x4
C|-2-------4---------6-------4-----|
G|-2-------2---------4-------2-----|
D|---------------------------------|

d|-0-------------------------------|
A|-0-------------------------------|
F|-2-------------------------------|  
C|-2-------------------------------|
G|-0-------------------------------|
D|---------------------------------|

Solo:  N.C.

Turnaround:
d|-0-------0---------0-------0---0-|
A|-0-------0---------0-------0---0-|
F|-1-------4---------2-------6---4-|  (Raked)
C|-2-------4---------2-------6---4-|
G|-2-------2---------0-------4---2-|
D|---------------------------------|

Outro:
d|-0-------0---------0------------0-----0---|
A|-0-------0---------0----------0---------4--|
F|-1-------4---------2-------6-------4------|  (Raked) 
C|-2-------4---------2-------6-------4------|
G|-2-------2---------0-------4-------2------|
D|------------------------------------------|

d|-0-------------------------------|
A|-0-------------------------------|
F|-1-------------------------------|  (Raked)  
C|-2-------------------------------|
G|-2-------------------------------|
D|---------------------------------|


| /  slide up
| \  slide down
| h  hammer-on
| p  pull-off
| ~  vibrato
| +  harmonic
| x  Mute note
============================================================================
Related for On My Way tab