Guitaretab - guitar tabs
Song name
# A B C D E F G H I J K L M N O P Q R S T U V W X Y Z

Boyce Avenue - Closer tab

Closer  Neyo (Boyceavenue Cover)

Tabbed By: Vhokie Cantada


Legend :
 
^ = Strum up
v = Strum down
h = hammer
s = slide
r = release
x = muted

Tuning : D# - A# - D# - G# - A# - D#


  
D#|----------0-----------0-----------0-----------0----|
A#|--------0-----------0-----------0-----------0------|
G#|------6-----------6--------------------------------|
D#|----5-----------5------------11---------11--------|
A#|---------------------------9-----------9-----------|
D#|--5-----------5----------9-----------9-------------|

D#|----------0-----------0-----------0-----------0----|
A#|--------0-----------0-----------0-----------0------|
G#|------6-----------6--------------------------------|
D#|----5-----------5------------11---------11--------|
A#|---------------------------9-----------9-----------|
D#|--5-----------5----------9-----------9-------------|

D#|----------0-----------0-----------0-----------0----|
A#|--------0-----------0-----------0-----------0------|
G#|------6-----------6--------------------------------|
D#|----5-----------5------------11---------11--------|
A#|---------------------------9-----------9-----------|
D#|--5-----------5----------9-----------9-------------|


Strum
     v       ^ v ^ v       v  v       ^ v ^ v    
D#|--0--P----0-0-0-0---P---0--0---P---0-0-0-0-P--0----|
A#|--0-A----0-0-0-0---A---0--0---A---0-0-0-0-A--0----|
G#|--4--U----4-4-4-4---U---6--7---U---7-7-7-7-U--7----|
D#|--0--S----0-0-0-0---S---0--0---S---0-0-0-0-S--0----|
A#|--0--E----0-0-0-0---E---0--0---E---0-0-0-0-E--0----|
D#|--5-------5-5-5-5-------7--9-------9-9-9-9----9----|


D#|----------0-----0-----0-----------0-----0-----0-------|
A#|--------0-----0-----0-----------0-----0-----0---------|
G#|------6-----6-----6-----6-----6-----6-----6-----6-----|
D#|----5-----------------------5-------------------------|
A#|------------------------------------------------------|
D#|--5-----------------------5---------------------------|



D#|-----------0------0-----0--------------0------0------0------|
A#|---------0------0-----0--------------0------0------0--------|
G#|------------------------------------------------------------|
D#|------11-----11----11-----11------11----11-----11-----11---|
A#|----9---------------------------9---------------------------|
D#|--9---------------------------9-----------------------------|


D#|----------0-----0-----0-----------0-----0-----0-------|
A#|--------0-----0-----0-----------0-----0-----0---------|
G#|------6-----6-----6-----6-----6-----6-----6-----6-----|
D#|----5-----------------------5-------------------------|
A#|------------------------------------------------------|
D#|--5-----------------------5---------------------------|


D#|-----------0------0-----0--------------0------0------0------|
A#|---------0------0-----0--------------0------0------0--------|
G#|------------------------------------------------------------|
D#|------11-----11----11-----11------11----11-----11-----11---|
A#|----9---------------------------9---------------------------|
D#|--9---------------------------9-----------------------------|


Strumming


     v ^ v ^ v ^ v ^ v ^ v ^ v ^ v ^ v ^ v ^ v ^ v ^ v ^ v ^ v ^ v 
D#|--0-0-0-0-0-0-0-0-0-0-0-0-0-0-0-0-0-0-0-0-0-0-0-0-0-0-0-0-0-0-0------|
A#|--0-0-0-0-0-0-0-0-0-0-0-0-0-0-0-0-0-0-0-0-0-0-0-0-0-0-0-0-0-0-0------|
G#|--4-4-6-4-4-4-6-4-4-4-6-4-4-4-6-4-4-4-6-4-4-4-6-4-4-4-6-4-4-4-6------|
D#|--0-0-0-0-0-0-0-0-0-0-0-0-0-0-0-0-0-0-0-0-0-0-00-0-0-0-0-0-0-0------|
A#|--0-0-0-0-0-0-0-0-0-0-0-0-0-0-0-0-0-0-0-0-0-0-0-0-0-0-0-0-0-0-0------|
D#|--5-5-5-5-5-5-5-5-5-5-5-5-5-5-5-5-5-5-5-5-5-5-5-5-5-5-5-5-5-5-5------|



     v ^ v ^ v ^ v ^ v ^ v ^ v ^ v ^ v ^ v ^ v ^ v ^ v  
D#|--0-0-0-0-0-0-0-0-0-0-0-0-0-0-0-0-0-0-0-0-0-0-0-0-0--P------|
A#|--0-0-0-0-0-0-0-0-0-0-0-0-0-0-0-0-0-0-0-0-0-0-0-0-0--A------|
G#|--7-7-9-7-7-7-9-7-7-7-9-7-7-7-9-7-7-7-9-7-7-7-9-7-7--U------|
D#|--0-0-0-0-0-0-0-0-0-0-0-0-0-0-0-0-0-0-0-0-0-0-00-0--S------|
A#|--0-0-0-0-0-0-0-0-0-0-0-0-0-0-0-0-0-0-0-0-0-0-0-0-0--E------|
D#|--9-9-9-9-9-9-9-9-9-9-9-9-9-9-9-9-9-9-9-9-9-9-9-9-9---------|


Adlib 
[ Tab from: http://www.guitaretab.com/b/boyce-avenue/178801.html ]
D#|-----------------------------------|
A#|-----------------------------------|
G#|------------------------6h7-6------|
D#|--7-7-7---0-0---7-7-7---7---7------|
A#|--5-5-5---0-0---5-5-5---5---5------|
D#|--5-5-5---0-0---5-5-5--------------|


D#|----------------------------------------|
A#|----------------------------------------|
G#|-------------------------7~s~9~s~7------|
D#|--7-7-7---0-0---7-7-7----x-x-x-x-x------|
A#|--5-5-5---0-0---5-5-5----5~s~7~s~5------|
D#|--5-5-5---0-0---5-5-5-------------------|


D#|---------------------------------------------------|
A#|---------------------------------------------------|
G#|--------------------------------11~s~12~s~11-------|
D#|--11-11-11---0--0----11-11-11---x-x-x-x-x-x--------|
A#|--9--9--9----0--0----9--9--9----9~~s~10~s~9--------|
D#|--9--9--9----0--0----9--9--9-----------------------|


D#|------------------------------------------------|
A#|------------------------------------------------|
G#|---------------------------------11-r-9-9-------|
D#|--11-11-11---0--0-----11-11-11---x-x-x-x--------|
A#|--9--9--9----0--0-----9--9--9----9----9-7-------|
D#|--9--9--9----0--0-----9--9--9--------=----------|


Strumming

     v ^ v ^ v ^ v ^ v ^ v ^ v ^ v ^ v ^ v ^ v ^ v ^ v ^ v ^ v ^ v 
D#|--0-0-0-0-0-0-0-0-0-0-0-0-0-0-0-0-0-0-0-0-0-0-0-0-0-0-0-0-0-0-0------|
A#|--0-0-0-0-0-0-0-0-0-0-0-0-0-0-0-0-0-0-0-0-0-0-0-0-0-0-0-0-0-0-0------|
G#|--4-4-6-4-4-4-6-4-4-4-6-4-4-4-6-4-4-4-6-4-4-4-6-4-4-4-6-4-4-4-6------|
D#|--0-0-0-0-0-0-0-0-0-0-0-0-0-0-0-0-0-0-0-0-0-0-00-0-0-0-0-0-0-0------|
A#|--0-0-0-0-0-0-0-0-0-0-0-0-0-0-0-0-0-0-0-0-0-0-0-0-0-0-0-0-0-0-0------|
D#|--5-5-5-5-5-5-5-5-5-5-5-5-5-5-5-5-5-5-5-5-5-5-5-5-5-5-5-5-5-5-5------|



     ^ v ^ v ^ v ^ v ^ v ^ v ^ v ^ v ^ v ^ v ^ v ^ v ^ v ^ v ^ v ^ v ^  
D#|--0-0-0-0-0-0-0-0-0-0-0-0-0-0-0-0-0-0-0-0-0-0-0-0-0-0-0-0-0-0-0-0-0---|
A#|--0-0-0-0-0-0-0-0-0-0-0-0-0-0-0-0-0-0-0-0-0-0-0-0-0-0-0-0-0-0-0-0-0---|
G#|--7-7-7-9-7-7-7-9-7-7-7-9-7-7-7-9-7-7-7-9-7-7-7-9-7-7-7-9-7-7-7-9-7---|
D#|--0-0-0-0-0-0-0-0-0-0-0-0-0-0-0-0-0-0-0-0-0-0-0-00-0-0-00-0-0-00---|
A#|--0-0-0-0-0-0-0-0-0-0-0-0-0-0-0-0-0-0-0-0-0-0-0-0-0-0-0-0-0-0-0-00---|
D#|--9-9-9-9-9-9-9-9-9-9-9-9-9-9-9-9-9-9-9-9-9-9-9-9-9-9-9-9-9-9-9-9-9---|


     v ^       v ^ v ^        
D#|--0-0--P----0-0-0-0--P-----|
A#|--00--A----0-0-0-0--A-----|
G#|--4-4--U----4-4-4-4--U-----|
D#|--0-0--S----0-0-0-0--S-----|
A#|--0-0--E----0-0-0-0--E-----|
D#|--5-5-------5-5-5-5--------|


      v ^ v ^ v ^ v ^ v ^ v ^ v ^ v ^ v ^ v ^ v ^ v ^ v ^ v ^ v ^ v ^  
D#|---0-0-0-0-0-0-0-0-0-0-0-0-0-0-0-0-0-0-0-0-0-0-0-0-0-0-0-0-0-0-0-0---|
A#|---0-0-0-0-0-0-0-0-0-0-0-0-0-0-0-0-0-0-0-0-0-0-0-0-0-0-0-0-0-0-0-0---|
G#|---7-7-9-7-7-7-9-7-7-7-9-7-7-7-9-7-7-7-9-7-7-7-9-7-7-7-9-7-7-7-9-7---|
D#|---0-0-0-0-0-0-0-0-0-0-0-0-0-0-0-0-0-0-0-0-0-0-00-0-0-00-0-0-00---|
A#|---0-0-0-0-0-0-0-0-0-0-0-0-0-0-0-0-0-0-0-0-0-0-0-0-0-0-0-0-0-0-00---|
D#|---9-9-9-9-9-9-9-9-9-9-9-9-9-9-9-9-9-9-9-9-9-9-9-9-9-9-9-9-9-9-9-9---|


     v ^ v ^ v ^ v ^ v ^ v ^ v ^ v ^ v ^ v ^ v ^ v ^ v ^ v ^ v ^ v ^
D#|--0-0-0-0-0-0-0-0-0-0-0-0-0-0-0-0-0-0-0-0-0-0-0-0-0-0-0-0-0-0-0-0-----|
A#|--0-0-0-0-0-0-0-0-0-0-0-0-0-0-0-0-0-0-0-0-0-0-0-0-0-0-0-0-0-0-0-0-----|
G#|--4-4-6-4-4-4-6-4-4-4-6-4-4-4-6-4-4-4-6-4-4-4-6-4-4-4-6-4-4-4-6-4-----|
D#|--0-0-0-0-0-0-0-0-0-0-0-0-0-0-0-0-0-0-0-0-0-0-00-0-0-0-0-0-0-0-0-----|
A#|--0-0-0-0-0-0-0-0-0-0-0-0-0-0-0-0-0-0-0-0-0-0-0-0-0-0-0-0-0-0-0-0-----|
D#|--5-5-5-5-5-5-5-5-5-5-5-5-5-5-5-5-5-5-5-5-5-5-5-5-5-5-5-5-5-5-5-5-----|


      v ^ v ^ v ^ v ^ v ^ v ^ v ^ v ^ v ^ v ^ v ^ v ^ v ^ v ^ v ^ v ^  
D#|---0-0-0-0-0-0-0-0-0-0-0-0-0-0-0-0-0-0-0-0-0-0-0-0-0-0-0-0-0-0-0-0---|
A#|---0-0-0-0-0-0-0-0-0-0-0-0-0-0-0-0-0-0-0-0-0-0-0-0-0-0-0-0-0-0-0-0---|
G#|---7-7-9-7-7-7-9-7-7-7-9-7-7-7-9-7-7-7-9-7-7-7-9-7-7-7-9-7-7-7-9-7---|
D#|---0-0-0-0-0-0-0-0-0-0-0-0-0-0-0-0-0-0-0-0-0-0-00-0-0-00-0-0-00---|
A#|---0-0-0-0-0-0-0-0-0-0-0-0-0-0-0-0-0-0-0-0-0-0-0-0-0-0-0-0-0-0-00---|
D#|---9-9-9-9-9-9-9-9-9-9-9-9-9-9-9-9-9-9-9-9-9-9-9-9-9-9-9-9-9-9-9-9---|


     v         
D#|--0--P---|
A#|--0--A---|
G#|--4--U---|
D#|--0--S---|
A#|--0--E---|
D#|--5------| End


For me it sounds like this. I'll be happy for any correction and comments. Thank you.
Related for Closer tab