Song name
# A B C D E F G H I J K L M N O P Q R S T U V W X Y Z

Boyce Avenue - What Goes Around Rehab Acoustic tab

What Goes Around / Rehab (acoustic)
Tabbed and arranged by: Alejandro Manzano of Boyce Avenue

www.facebook.com/boyceavenue

Tuning: Standard

^ = pull off or hammer on
/ = slide up
\ = slide down
x = mute

Acoustic #1:

Intro:
-5^3-5------------5^3-5------------5^3-5---------|
-------5/6\5-3--5-------5/6\5-3--5-------5/6\5-3-|
-------------------------------------------------|
-------------------------------------------------|
-------------------------------------------------|
-------------------------------------------------|

---5^3-5-5^3-5^3-5-|
-5-----------------|
-------------------|
-------------------|
-------------------|
-------------------|

Chorus: (2nd time through during 2nd chorus)
-------3(5)---------|
---3-------3---3----|
-5---5-------5------|
--------------------|
--------------------|
--------------------|

Bridge:
-----------------------------------------------------|
-------------------8-10------------------------------|
-0-/-5-----7-/-9--------7----7-9-9^10-9-7\--4-\-2--1-|
-----------------------------------------------------|
-----------------------------------------------------|
-----------------------------------------------------|

-0----0----3----0--0-|
-1----1----3----1--0-|
-2----0----0----2--1-|
-2----2----0----3--2-|
-0----3----x----3--2-|
-----------3-------0-|

-0----0----3----0-|
-1----1----3----1-|
-2----0----0----2-|
-2----2----0----0-|
-0----3----x----0-|
-----------3----2-|

Acoustic #2:

Intro/Verse:
----------------0-------------------------|
-------1----------3-3-------0-----------1-|
-----2--------0-----------0---2-2-----2---|
---2--------2-----------0-----------0-----|
-0--------3-------------------------------|
----------------------3-----------2-------|

Chorus:
-0----0----3----0-|
-1----1----3----1-|
-2----0----0----2-|
-2----2----0----3-|
-0----3----x----3-|
-----------3------|

Bridge:
-----------------------------------------------------------|
-----------------------------------------------------------|
-----------------------------------------------------------|
-2-2---2--2-------5-5---5--5-------------------------------|
-0-0---0--0---0^2-3-3---3--3---3\2-5-5---5--5---3-3---2--2-|
-----------------------------------3-3---3--3---1-1---0--0-|

---------------------------------------------------------|
---------1-----------1---------------1-----------1-------|
-----2-----------2-----2---------0-----------0-----0-----|
---2---2-------2---2-----------2---2-------2---2---------|
-0----------0------------0-2-3----------3------------3-2-|
---------------------------------------------------------|

---------------------------------------------|
---------3-----------3---------------------0-|
-----0-----------0--------------2------1-----|
---0---0-------0---0--------3--------2---2---|
--------------------------3---3--------------|
-3----------3-----------1----------0---------|

Outro:
-0----0----3----0-|
-1----1----3----1-|
-2----0----0----2-|
-2----2----0----0-|
-0----3----x----0-|
-----------3----2-|
Tap to rate this tab
# A B C D E F G H I J K L M N O P Q R S T U V W X Y Z