Guitaretab - guitar tabs
Song name
# A B C D E F G H I J K L M N O P Q R S T U V W X Y Z

Boyce Avenue - Yellow tab

Boyce Avenue-Yellow(Coldplay Cover)
Album:Influential Sessions
Year:2009
Tabbed By: Trey Everett

Tuning:D# G# C# F# B D#

Intro: (strumming)

-0--0--0--0--3-p1--5s7-7s5-0---0---1h3-3p1-0-|
-4-4s5-4-4s5-0--0--0---0--0h2-2h0--0---0---0-|
-0--0--0--0--0--0--0---0---2---2---0---0---0-|
-x--x--x--x--2--2--0---0---3---3---2---2---2-|
-3--3--3--3--3--3----------3---3---3---3---3-|
---------------------------------------------|

Verse:(Palm Mute)

-------------|
-------------|
-0---4----2--| (x3)
-2---5----3--|
-3---5----3--|
-----3----1--|

---------0-|
-0---0---0-|
-0---0---0-|
-2---3---2-|
-3---3---3-|
-----------|

Chorus:(Strumming)

-0----0----0--------0^--------|
-0----0----0--------0^--------|
-2----5----4-(x3)---2^--------|
-3----7----5--------3^--------|
-3----7----5--------3^--------|
-1---------3--------1^--------|

Bridge:(Same As Intro)

Ending:

-----0---0^----|
-0---0---0^----|
-0---7---2^----|
-2---8---3^----|
-3---8---3^----|
-----6---1^----|

[ Tab from: http://www.guitaretab.com/b/boyce-avenue/216210.html ]
Guitar 2:

Intro:

--(12)-------------|
--(12)-------------|
--(12)-------------|
-------------------|
-------------------|
-------------------|

(Strumming)

--0---0---0---0----|
--0---0---0---0----|
--0---4---2---0----|
--2---5---3---2----|
--3---5---3---3----|
------3---1--------|

Verse:(Raked)

-0^---0^---0^--|
-0^---0^---0^--|
-0^---4^---2^--| (x3)
-2^---5^---3^--|
-3^---5^---3^--|
------3^---1^--|

-----------------|
-4-4-5-5-4-4-4-4-|
--5-5-5-5-5-5-5--|
-----------------|
-----------------|
-----------------|

Chorus:

-8-8-8-8-12--12--10--10---|
--9-9-9-9--12--12--12--12-|
--------------------------| (x3)
--------------------------|
--------------------------|
--------------------------|

--8~---------------|
----9~-7~----------|
---------9~~-------|
-------------------|
-------------------|
-------------------|

Bridge:(Same As Intro Strumming)

Ending:

----0^-----|
----0^-----|
----2^-----|
----3^-----|
----3^-----|
----1^-----|


Hope You Enjoy=]
Related for Yellow tab
Yellow chords by Boyce Avenue