Song name
# A B C D E F G H I J K L M N O P Q R S T U V W X Y Z

Boyce Avenue - Yellow tab

I made some mistakes on my first tab so I combined Trey's tab and mine to make a 
better tab,,, enjoy :)

Band: Boyce Avenue - Yellow (Coldplay Cover)
Album: Influential Sessions
Year: 2009
Tabbed by: Scott Naylor

Tunning: Db Ab Db Gb B eb

Intro

Guitar 1

eb||-0-0-0-0---0-0-0-0---0-0-0-0---0-0-0-0----|
B ||-4-4-4-4h5-5-5-5-5p4-4-4-4-4h5-5-5-5-5----|
Gb||-0-0-0-0---0-0-0-0---0-0-0-0---0-0-0-0----| x1
Db||-2-2-2-2---2-2-2-2---2-2-2-2---2-2-2-2----|
Ab||-3-3-3-3---3-3-3-3---3-3-3-3---3-3-3-3----|
Db||------------------------------------------|

Guitar 2

eb||-------------------<>12-------------------|
B ||-------------------<>12-------------------|
Gb||-------------------<>12-------------------| x1
Db||------------------------------------------|
Ab||------------------------------------------|
Db||------------------------------------------|

Main Riff

Guitar 1

eb||-3-3-3-3p1-1-1-1-1-5s7-7-7-7-7s5-5-5-5---0-0-0-0---0-0-0-0---3-3-3-3p1-1-1-0-1----|
B ||-0-0-0-0---0-0-0-0---0-0-0-0---0-0-0-0---2-2-2-2p0-0-0-0-0---0-0-0-0---0-0-0-0----|
Gb||-0-0-0-0---0-0-0-0---0-0-0-0---0-0-0-0---2-2-2-2p0-0-0-0-0---0-0-0-0---0-0-0-0----| x1
Db||-0-0-0-0---0-0-0-0---0-0-0-0---0-0-0-0---3-3-3-3---3-3-3-3---0-0-0-0---0-0-0-0----|
Ab||-3-3-3-3---3-3-3-3-----------------------3-3-3-3---3-3-3-3---3-3-3-3---3-3-3-3----|
Db||----------------------------------------------------------------------------------|

Guitar 2

eb||-0-0-0-0---0-0-0-0---0-0-0-0---0-0-0-0---0-0-0-0---0-0-0-0---0-0-0-0---0-0-0-0----|
B ||-0-0-0-0---0-0-0-0---0-0-0-0---0-0-0-0---0-0-0-0---0-0-0-0---0-0-0-0---0-0-0-0----|
Gb||-0-0-0-0---0-0-0-0---4-4-4-4h5-5-5-5-5---2-2-2-2p0-0-0-0-0---0-0-0-0---0-0-0-0----| x1
Db||-2-2-2-2h3-3-3-3-3---5-5-5-5---5-5-5-5---3-3-3-3---3-3-3-3---2-2-2-2h3-3-3-3-3----|
Ab||-3-3-3-3---3-3-3-3---5-5-5-5---5-5-5-5---3-3-3-3---3-3-3-3---3-3-3-3---3-3-3-3----|
Db||----------------------------------------------------------------------------------|

Verse 1

Guitar 1

eb||------------------------------------------------------------------------|
B ||------------------------------------------------------------------------|
Gb||-0-0-0-0-0-0-0-0---4-4-4-4-4-4-4-4---2-2-2-2-0-0-0-0--------------------| x3
Db||-2-2-2-2-2-2-2-2---5-5-5-5-5-5-5-5---3-3-3-3-3-3-3-3--------------------|
Ab||-3-3-3-3-3-3-3-3---5-5-5-5-5-5-5-5---3-3-3-3-3-3-3-3--------------------|
Db||------------------------------------------------------------------------|
     x x x x x x x x   x x x x x x x x   x x x x x x x x

Guitar 2 

eb||-0^----------------0^----------------0^---------------------------------|
B ||-0^----------------0^----------------0^---------------------------------|
Gb||-0^----------------4^----------------2^---------------------------------| x3
Db||-2^----------------5^----------------3^---------------------------------|
Ab||-3^----------------5^----------------3^---------------------------------|
Db||------------------------------------------------------------------------|

Pre-Chours

Guitar 1

eb||-0--0--0--0--0--0--0--0-----|
B ||-0--0--0--0--0--0--0--0-----|
Gb||-0--0--0--0--0--0--0--0-----| x1
Db||-2--2--3--3--2--2--2--2-----|
Ab||-3--3--3--3--3--3--3--3-----|
Db||----------------------------|

Guitar 2

eb||----------------------------|
B ||-4--4--5--5--4--4--4--4-----|
Gb||--5--5--5--5--5--5--5--5----| x1
Db||----------------------------|
Ab||----------------------------|
Db||----------------------------|


Chours

Guitar 1

eb||-0--0--0--0--0--0--0--0----|    |-0--0--0~----|
B ||-0--0--0--0--0--0--0--0----|    |-0--0--0~----|
Gb||-2--2--2--2--5--5--4--4----| x3 |-0--0--0~----| x1
Db||-3--3--3--3--7--7--5--5----|    |-2--2--0~----|
Ab||-3--3--3--3--7--7--5--5----|    |-3--3--3~----|
Db||---------------------------|    |-------------|

Guitar 2

eb||-8--8--8--8--12-12-10-10---|    |-8-----------|
B ||--7--7--7--7---------------|    |---9-7-------|
Gb||--------------12-12-12-12--| x3 |-------9~----| x1
Db||---------------------------|    |-------------|
Ab||---------------------------|    |-------------|
Db||---------------------------|    |-------------|


Main Riff x1


Verse x2


Pre-Chorus x1


Chorus x1


Main Riff x2


Outro

eb||-3-3-3-3p1-1-1-1-1-5s7-7-7-7-7s5-5-5-5---0-0-0-0---0-0-0-0----|
B ||-0-0-0-0---0-0-0-0---0-0-0-0---0-0-0-0---2-2-2-2p0-0-0-0-0----|
Gb||-0-0-0-0---0-0-0-0---0-0-0-0---0-0-0-0---2-2-2-2p0-0-0-0-0----| x1
Db||-0-0-0-0---0-0-0-0---0-0-0-0---0-0-0-0---3-3-3-3---3-3-3-3----|
Ab||-3-3-3-3---3-3-3-3-----------------------3-3-3-3---3-3-3-3----|
Db||--------------------------------------------------------------|

Guitar 2

eb||-0-0-0-0---0-0-0-0---0-0-0-0---0-0-0-0---0-0-0-0---0-0-0-0----|
B ||-0-0-0-0---0-0-0-0---0-0-0-0---0-0-0-0---0-0-0-0---0-0-0-0----|
Gb||-0-0-0-0---0-0-0-0---4-4-4-4h5-5-5-5-5---2-2-2-2p0-0-0-0-0----| x1
Db||-2-2-2-2h3-3-3-3-3---5-5-5-5---5-5-5-5---3-3-3-3---3-3-3-3----|
Ab||-3-3-3-3---3-3-3-3---5-5-5-5---5-5-5-5---3-3-3-3---3-3-3-3----|
Db||--------------------------------------------------------------|


Guitar 1 & 2

eb||-0-0-0-0-0-0-0-0--0-0-0-0-0-0-0-0--0~----|
B ||-0-0-0-0-0-0-0-0--0-0-0-0-0-0-0-0--0~----|
Gb||-0-0-0-0-0-0-0-0--7-7-7-7-7-7-7-7--2~----| x1
Db||-2-2-2-2-2-2-2-2--8-8-8-8-8-8-8-8--3~----|
Ab||-3-3-3-3-3-3-3-3--8-8-8-8-8-8-8-8--3~----|
Db||------------------6-6-6-6-6-6-6-6--------|

   p - Pull off 
   h - Hammer on
   s - Slide
   x - Palm mute
   ^ - Rake
   ~ - Let ring
   

     Feel free to leave me feedback on the tab at scotty_naylor@hotmail.com

     Thanks
Tap to rate this tab
 
# A B C D E F G H I J K L M N O P Q R S T U V W X Y Z