Song name
# A B C D E F G H I J K L M N O P Q R S T U V W X Y Z

Boyce Avenue - Viva La Vida tab

Tuning: C# G# C# D# G# D#

 X  = mute
< > = harmonics

Verse 1:
-0---0---0---0---0---0---0---0----0---0---0---0---0---0---0---0-|
-0---0---0---0---0---0---0---0---0---0---0---0---0---0---0---0--|
-5---7---0---0---5---7---0---0----------------------------------|
-4---6---7---4---4---6---7---4--4---6---7---4---4---6---7---4---|
-5---7---0---x---5---7---0---x----------------------------------|
-------------4---------------4----------------------------------|

-----0-------0-------0-------0----|
------0-------0-0-----0---0-0-0-0-|
---5---5--7-7------0---0---4---4--|
--4-4----6-6---6--7-7----4--------| (play 2X slight palm mute)
-5------7--------0----------------|
------------------------4---------|

-----0-------0-------0-------0----|
------0-------0-0-----0---0-0-0-0-|
---5---5--7-7------0---0---4---4--|
--4-4----6-6---6--7-7----4--------| (play 2X open)
-5------7--------0----------------|
------------------------4---------|

Chorus 1 and 2:
-0---0---0---0---0---0---0---0-|
-0---0---0---0---0---0---0---0-|
-2---0---0---0---2---0---0---0-|
-0---x---2---x---0---x---2---x-|
-0---2---0---4---0---2---0---4-|
-0---2-------4---0---2-------4-|

-0---0---0---0---0---0---0---0-|
-0---0---0---0---0---0---0---0-|
-2---4---0---0---2---0---4---0-|
-0---2---2---x---0---x---2---x-|
-0---2---4---4---0---2---0---4-|
-0---2-------4---0---2-------4-|

Turnaround: (play 2X)
-0----0---0--0--0--0--|
-(b9)---7---12-11-12-11-|
-10---7---12-12-12-12-|
----------------------|
----------------------|
----------------------|

Verse 2:
-----0-------0-------0-------0----|
------0-------0-0-----0---0-0-0-0-|
---5---5--7-7------0---0---4---4--|
--4-4----6-6---6--7-7----4--------| (play 2X slight palm mute)
-5------7--------0----------------|
------------------------4---------|

-----0-------0-------0-------0----|
------0-------0-0-----0---0-0-0-0-|
---5---5--7-7------0---0---4---4--|
--4-4----6-6---6--7-7----4--------| (play 2X open)
-5------7--------0----------------|
------------------------4---------|

Bridge:
-<12>-|
-<12>-|
-<12>-|
------|
------|
------|

Chorus 3:
-0---0---0---0---0---0---0---0-|
-0---0---0---0---0---0---0---0-|
-2---0---0---0---2---0---0---0-|
-0---x---2---x---0---x---2---x-|
-0---2---0---4---0---2---0---4-|
-0---2-------4---0---2-------4-|

-0---0---0---0---0---0---0---0-|
-0---0---0---0---0---0---0---0-|
-2---4---0---0---2---0---4---0-|
-0---2---2---x---0---x---2---x-|
-0---2---0---4---0---2---0---4-|
-0---2-------4---0---2-------4-|
Tap to rate this tab
# A B C D E F G H I J K L M N O P Q R S T U V W X Y Z