Song name
# A B C D E F G H I J K L M N O P Q R S T U V W X Y Z

Boyce Avenue - Change Your Mind tab

Boyce Avenue  Change Your Mind
Music, Lyrics, & Tab by Alejandro Manzano of Boyce Avenue

www.YouTube.com/BoyceAvenue

Acoustic Guitar

Key of G

Tuning: C  G  C  D  G  D

X = mute
/ = slide up

Intro/Verse:
-0----0----0----0-|
-0----0----0----0-|
-0----0----0----0-|
-6----2----4----2-|
-4----2----0----2-|
-4----2----0----2-|

Chorus:
-0---0---0---0---0---0---0---0-|
-0---0---0---0---0---0---0---0-|
-9---7---5---7---9---7---5---7-|
-7---6---4---6---7---6---4---6-|
-0---0---0---0---0---0---0---0-|
-x---------------0---0---0---0-|

-0----0--0--0----0-|
-0----0--0--0----0-|
-0----0--0--2----0-|
-6----4--2--0----2-|
-4----2--2--0----2-|
-4----2--2--0----2-|

Bridge:
-0---0---0---0---0---0---0---0-|
-0---0---0---0---0---0---0---0-|
-9---7---5---7---9---7---5---7-|
-7---6---4---6---7---6---4---6-| (Play 2x)
-0---0---0---0---0---0---0---0-|
-x-----------------------------|


-0---0---0---0---0---0---0---0-|
-0---0---0---0---0---0---0---0-|
-9---7---5---7---9---7---5---7-|
-7---6---4---6---7---6---4---6-|
-0---0---0---0---0---0---0---0-|
-0---0---0---0---0---0---0---0-|

Breakdown/Build-Up:
-0--------0------------------0-|
-0--------0----------0-------0-|
-0--------2----------0----0--0-|
-7--------0-------2/-6----4--4-|
-0--------0-------2/-4----2--2-|
----------0-------2/-4----2--2-|

-0----0----0----0-|
-0----0----0----0-|
-2--/-4--/-5--/-7-|
-0----0----0----0-|
-0----0----0----0-|
-0----0----0----0-|

Outro:
-0----0----0----0----0----0----0----0-|
-0----0----0----0----0----0----0----0-|
-0----0----2----4----0----0----2----4-|
-4----2----0----2----4----2----0----2-| (Play 2x)
-0----2----0----2----0----2----0----2-|
-0----2----0----2----0----2----0----2-|

-0-
-0-
-2-
-0-
-0-
-0-
Tap to rate this tab
 
# A B C D E F G H I J K L M N O P Q R S T U V W X Y Z