Boyce Avenue - You And Me tab

Lifehouse  You And Me
Tabbed by: Alejandro Manzano of Boyce Avenue

www.YouTube.com/BoyceAvenue

video of me playing/singing it:
http://www.youtube.com/watch?v=-vOzaHqczVA

Tuning: E  A  D  G  B  E (Standard)

 x  = mute
 ^  = hammer on or pull off

Intro/Verse/Outro:
---3----3----3----3----3---3---3---3---3-|
---3----3----3----3----3---3---3---3---3-|
---0----0----0----0----0---2---0---0---0-|
---0----x----0----0----2---0---2---0^2-0-|
---x--3------x--2------2---0---3---3---3-|
-3---------2---------0-------------------|

Chorus:
-3---3---3------3---3---3---2-|
-3---3---3------3---3---3---3-|
-0---0---0------0---0---0---2-|
-0---2---2------2---0---2---0-|
-x---0---3------2---x---2---0-|
-3--------------0---3---0-----|

-3---3---3------3---3---3---2---3-|
-3---3---3------3---3---3---3---3-|
-0---0---0------0---0---0---2---0-|
-0---2---2------2---0---2---0---2-|
-x---0---3------2---x---2---0---3-|
-3--------------0---3---0---------|

Bridge:
-2----3----3--2--0----0----2----2----x--x--x--x-|
-3----3----3--3--0----1----3----3----1--3--4--6-|
-4----0----0--2--0----2----2----4----0--0--0--0-|
-4----2----0--0--2----2----0----4----x--x--x--x-|
-2----3----2--0--2----0----0----2----3--3--3--3-|
-----------3--2--0------------------------------|
Tap to rate this tab
 
# A B C D E F G H I J K L M N O P Q R S T U V W X Y Z