Boyce Avenue - Just The Way You Are tab

Bruno Mars  Just The Way You Are
Tabbed & Arranged by: Alejandro Manzano of Boyce Avenue
www.YouTube.com/BoyceAvenue

Key: C#
Tuning: C#  G#  C#  G#  C#  F

X = mute
/ = slide up

Intro:
------------------------------------|
-------0--------0--------0--------0-|
-----0--------0--------0--------0---|
---4--------4--------4--------4-----|
-5--------5--------2--------2-------|
------------------------------------|

------------------------------|
-------0--------0--------0----|
-----0--------0--------0------|
---0--------0--------4--------|
-------------------5--------5-|
-5--------5-------------------|

Verse 1:
-0------0------0------0-|
-0------0------0------0-|
-0------0------0------0-|
-4------4------x------4-|
-5------2------5------5-|
---------------5--------|

------------------------------------|
-------0--------0--------0--------0-|
-----0--------0--------0--------0---|
---4--------4--------4--------4-----|
-5--------5--------2--------2-------|
------------------------------------|

------------------------------|
-------0--------0--------0----|
-----0--------0--------0------|
---0--------0--------4--------|
-------------------5--------5-|
-5--------5-------------------|

Chorus 1:
-0------0------0------0-|
-0------0------0------0-|
-12-----9------5------5-|
-12-----9------5------0-|
-x------x------x------x-|
------------------------|

-0------0------0------0-|
-0------0------0------0-|
-0------0------0------0-|
-0------4------x------0-|
-5------2------5------5-|
---------------5--------|

Verse 2:
-0---0---0---0---0---0---0---0-|
-0---0---0---0---0---0---0---0-|
-0---0---0---0---0---0---0---0-|
-4---4---4---4---x---x---4---4-|
-5---5---2---2---5---5---5---5-|
-----------------5---5---------|

-------------------------------------------------------------|
-------0--------------0--------------0--------------0--------|
-----0----0---0-----0----0---0-----0----0---0-----0----0---0-|
---4--------4-----4--------4-----4--------4-----4--------4---|
-5--------------5--------------2--------------2--------------|
-------------------------------------------------------------|

------------------------------------------------|
-------0--------------0--------------0----------|
-----0----0---0-----0----0---0-----0----0---0---|
---0--------0-----0--------0-----4--------4-----|
-------------------------------5--------------5-|
-5--------------5-------------------------------|

Chorus 2:
-0------0------0------0------0------0------0------0-|
-0------0------0------0------0------0------0------0-|
-0------0------0------0------0------0------0------0-|
-0------x------x------0------0------x------x------0-|
-12-----9------5------5----/-12-----9------5------5-|
-0------9------5------0------0------9------5------0-|

Bridge:
-0------0------0------0------0------0------0------0-|
-0------0------0------0------0------0------0------0-|
-0------0------0------0------0------0------0------0-|
-0------4------x------0------0------4------x------0-|
-5------2------5------5------5------2------5------5-|
-0-------------5------0------0-------------5------0-|

Ending:
-0------0------0------0-|
-0------0------0------0-|
-0------0------0------0-|
-4------4------x------4-|
-5------2------5------5-|
---------------5--------|

-0------0------0--------|
-0------0------0--------|
-12-----9------5------0-|
-12-----9------5------0-|
-x------x------x------5-|
----------------------0-|
Tap to rate this tab
 
# A B C D E F G H I J K L M N O P Q R S T U V W X Y Z