Song name
# A B C D E F G H I J K L M N O P Q R S T U V W X Y Z

Boyce Avenue - More Things To Say tab

More things to say - Boyce Avenue

Tabbed by: Matheus Dutra

www.myspace.com/dutramoraes

Boyce Avenue playing more things to say(Oficial Song & Lyrics)
http://www.youtube.com/watch?v=51mfRmCjhhQ

My guitar tab or arrangement:

Tunning:Standard

Intro/verses 1 and 2:

e-------------------------------------------------------------|
B--------------------------------------0-0-3---------3-2------|
G--------0-0-2--------0-0-2------------------------------2----|
D-----4------------4----------------4-------------4-----------|
A------------------------------2---------------0--------------|
E--3------------3---------------------------------------------|

Chorus:

e--2----0----0---0--------------------------|
B--3----5----3---2--------------------------|
G--4----6----0---2--------------------------|
D--4----7----0---2--------------------------|
A--2----0----0---0--------------------------|
E------------3------------------------------|

Solo:

e----------------------------------------------------------------------|
B-0-3-3/5--5/7---0-3-3-5-7-5-3-0---0-3---0-3-10------------------------|
G--------------------------------2--------------9---7-6-7-6---4-6------|
D----------------------------------------------------------------------|
A----------------------------------------------------------------------|
E----------------------------------------------------------------------|

e-------------------------------------------------------------------------|
B-0-3-3/5--5/7---0-3-3-5-7-5-3-0---0-3---0-3-10---------------------------|
G--------------------------------2--------------9---7-6-4-2-0-------------|
D-------------------------------------------------------------4-2-0-------|
A-------------------------------------------------------------------4/5---|
E-------------------------------------------------------------------------|

Bridge:

e--2----0----2----0----------------------------|
B--3----5----3----2----------------------------|
G--4----6----4----2----------------------------|    I'm so sure...
D--4----7----4----2----------------------------|    I'm so sure...
A--2----0----2----0----------------------------|
E----------------------------------------------|

This my arrangement of "More Things To Say".

Enjoy ;)
Tap to rate this tab
 
# A B C D E F G H I J K L M N O P Q R S T U V W X Y Z