Song name
# A B C D E F G H I J K L M N O P Q R S T U V W X Y Z

Boyce Avenue - Tonight tab

Alejandro-Guitar 1
Fabian-Guitar 2
Daniel-Bass

Intro
Guitar 1 (Palm Muted)
E|---------------------------------|
B|---------------------------------|
G|-5-5-7-7-9-9-9-9-9-9-9-9-9-9-9-9-| Four
D|---------------------------------| Times
A|---------------------------------|
E|---------------------------------|

Bass
G|------------|
D|------------|
A|------------|
E|-8-13-17-13-|

Intro 2/Instrumental Interlude
Guitar 2
E|---------------------------------|
B|---------------------------------|
G|-5-5-7-7-9-9-9-9-9-9-9-9-9-9-9-9-| Three
D|---------------------------------| Times
A|---------------------------------|
E|---------------------------------|

E|----------------------------------|
B|----------------------------------|
G|-5-5-7-7-9-9-10-9-9-9-7-5-5-5-5-5-|
D|----------------------------------|
A|----------------------------------|
E|----------------------------------|

E|---------------------------------|
B|---------------------------------|
G|-5-5-7-7-9-9-9-9-9-9-9-9-9-9-9-9-| Three
D|---------------------------------| Times
A|---------------------------------|
E|---------------------------------|

E|----------------------------------------------|
B|----------------------------------------------|
G|-5-5-7-7-9-9-10-9-9-9-7-5-5-5-5-5-5-7-7-5-5-5-|
D|----------------------------------------------|
A|----------------------------------------------|
E|----------------------------------------------|

Guitar 2
E|-0-0-0-0-|
B|-1-1-1-1-|
G|-0-2-2-2-|
D|-2-3-2-3-|
A|-3-0-0-0-|
E|---------|

Bass
G|---------|
D|---------|
A|---------|
E|-8-1-5-1-|

Verse
Guitar 2
E|------------------|
B|------------------|
G|---5-7------5-7-9-| Two
D|-5--------5-------| Times
A|------------------|
E|------------------|

Bass
G|-----------|
D|-----------|
A|-----------|
E|-8-13-5-13-|

Pre-Chorus
Guitar 1
E|---------------------------------|
B|---------------------------------|
G|-5-5-7-7-9-9-9-9-9-9-9-9-9-9-9-9-| Six
D|---------------------------------| Times
A|---------------------------------|
E|---------------------------------|

E|---------------------------------|
B|---------------------------------|
G|-5-5-7-7-9-9-7-7-7-7-7-7-7-7-7-7-|
D|---------------------------------|
A|---------------------------------|
E|---------------------------------|

Guitar 2
E|--------------------------------------|
B|--------------------------------------|
G|-9-----7-----12---13---12-----9-----7-|
D|--------------------------------------|
A|--------------------------------------|
E|--------------------------------------|

Bass
G|------------------|
D|------------------|
A|------------------|
E|-17-15-8-13-17-15-|

Outro
Guitar 1
E|---------------------------------------|
B|---------------------------------------|
G|-5-5---5-5-5-5---5-5-5-5---5-5-5-5---5-|
D|---------------------------------------|
A|-3-3---3-5-3-3---3-3-3-3---3-3-3-3---3-|
E|---------------------------------------|

Outro 2 (Cant really pick up Guitar 2)
Guitar 1
E|---------------------------------------|
B|---------------------------------------|
G|-5-5---5---5-5---5---5-5---5---5-5---5-| Two
D|---------------------------------------| Times
A|-3-3---3---3-3---3---3-3---3---3-3---3-|
E|---------------------------------------|

E|---------------------------------------------------------------------------|
B|---------------------------------------------------------------------------|
G|-5-5---5---5-5---5---7-7---7---7-7-9-7---9-9---9---9-9---9---7-7---7---7-7-|
D|---------------------------------------------------------------------------|
A|-3-3---3---3-3---3---5-5---5---5-5-7-5---7-7---7---7-7---7---5-5---5---5-5-|
E|---------------------------------------------------------------------------|

E|---------------------------------------|
B|---------------------------------------|
G|-5-5---5---5-5---5---5-5---5---5-5---5-| Two
D|---------------------------------------| Times
A|-3-3---3---3-3---3---3-3---3---3-3---3-|
E|---------------------------------------|

E|--------------------------------------------------------------------------------|
B|--------------------------------------------------------------------------------|
G|-5-5---5---5-5---5---7-7---7---7-7-9-7---9-9---9---9-9---9---10-10---10---10-10-|
D|--------------------------------------------------------------------------------|
A|-3-3---3---3-3---3---5-5---5---5-5-7-5---7-7---7---7-7---7---8--8----8----8--8--|
E|--------------------------------------------------------------------------------|

Bass
G|---------------------------------------------|
D|---------------------------------------------|
A|---------------------------------------------|
E|-8-10-12-13-8-15-12-10-8-10-12-13-8-15-17-13-|
Tap to rate this tab
 
# A B C D E F G H I J K L M N O P Q R S T U V W X Y Z