Song name
# A B C D E F G H I J K L M N O P Q R S T U V W X Y Z

Boyce Avenue - Firework tab

I used an acoustic guitar for this.Enjoy.:)

Standard Tuning.

Legend:
h=hammer(or slide)

Intro:

E|-----------------------------------------|
B|---4h6--4---7--6----2---4----------------|
G|-----------------------------------------|
D|-----------------------------------------|
A|---4----6--------------------------------|
E|---------------6----2--------------------|


Verse:

E|----------------------------------------|
B|---6--4--2---7--------------------------|
G|----------------------------------------|
D|----------------------------------------|
A|---4--3--1---9--------------------------|
E|----------------------------------------|

Chorus:

E|----------------------------------------|
B|---9999---66s77-------------------------|
G|----------------------------------------|
D|----------------------------------------|
A|----------------------------------------|
E|----------------------------------------|

(Intro)

(verse)



So don't let them take your life for granted..(same as chorus)


(chorus)


(Intro)


This is about 90% accurate,because i used an acoustic guitar.Please comment or send me 
an email. dopadits_the4th@yahoo.com



i might have the Only girl cover of Boyce avenue also.:)
Tap to rate this tab
 
# A B C D E F G H I J K L M N O P Q R S T U V W X Y Z