Song name
# A B C D E F G H I J K L M N O P Q R S T U V W X Y Z

Boyce Avenue - With Or Without You tab

Boyce Avenue and Kina Grannis-With or without you (U2 Cover on Youtube)

Hey guys I couldn't wait for somebody to tab this.
So here are the basics of this great acoustic version.
I must admit that I didn't like U2 until I saw this version of their song.
But anyway here we go. corrections are welcome...

First of all tune your six string down one step.
So the tuning is: D-G-C-F-A-D
Chords used throughout the song:
G (3x0033)
Dsus2 (xx0230)
Dsus4 (xx0233)
Em9 (xx2032)
Em7 (022033)
Cadd9 (032033)

Here is the intro/Verse :
   G                 Dsus2          Em9           Cadd9
-------------------------------------2-----------3---|
-----------3-------------5--------3-----------3------|
--0-----0-------0-----0--------0-----------0---------|
-----4-------------4--------2------------------------|
----------------------------------------3------------|
-----------------------------------------------------|
 you can also play this (guess that's what Kina plays):
    G
------------------------0-----------2----------3-----------|
-----------3---------3-----------3----------3--------------|
--------0---------2-----------0----------0-----------------|
-----0---------0-----------2-------------------------------|
--------------------------------------3--------------------|
--3--------------------------------------------------------|

at the end of the verse Alejandro plays these harmonic notes:

--------------------------------------------------------------|
----------(7)-----------------(12)----------------------------|
---(5)--------(7)--------(12)---------------------------------|
-------------------(7)----------------------------------------|
--------------------------------------------------------------|
--------------------------------------------------------------|
Verse 1,2 and Chorus: G,Dsus2,Em9,Cadd9 (finger picked)

Bridge: And you give ... G,Dsus2,Em9,Cadd9 (strummed by Kina, finger    picked by Alejandro)

Verse 3 and Bridge again: G,Dsus4,Em7,Cadd9 (first palm muted and strummed, then just strummed)

Finish with Intro fingerpicking and that's it...
Hope you get what I mean...
best wishes

travisjones(t.Bingenheimer)
Tap to rate this tab
 
# A B C D E F G H I J K L M N O P Q R S T U V W X Y Z