Song name
# A B C D E F G H I J K L M N O P Q R S T U V W X Y Z

Boyce Avenue - Will You Be There tab

Boyce Avenue - Will you be there
Tabbed by Vinícius Trezze

I hope you guys enjoy, any problem contact me on facebook
http://www.facebook.com/vinicius.trezze

Tuning: E  A  D  G  B  E  (standard) / capo 1nd fret (Optional)

x = mute

Intro
E|-0---4---1---0--3---|
B|-1---1---1---1--3---|
G|-0---0---2---2--0---|
D|-2---2---3---2--0---|  
A|-3---3---3---0--X---|
E|---------1---0--3---|

Goes up
E|-2---3---4--0--3---|
B|-3---3---1--1--3---|
G|-2---0---0--2--0---|
D|-0---0---2--2--0---|
A|-0---2---3--0--X---|
E|-----3---------3---|

Pre-Chorus
E|-0-0-3--0-0-3--0-0-3--0--1--3---|
B|-1-1-3--1-1-3--1-1-3--1--1--0---|
G|-2-2-0--2-2-0--2-2-0--2--2--0---|
D|-2-2-0--2-2-0--2-2-0--2--3--0---|
A|-0-0-X--0-0-X--0-0-X--0--3--2---|
E|-----3------3------3-----1--3---|

E|-0---4---1---0--3---|
B|-1---1---1---1--3---|
G|-0---0---2---2--0---|  x2
D|-2---2---3---2--0---|  
A|-3---3---3---0--X---|
E|---------1------3---|

Goes up
E|-2---3---4--0--3---|
B|-3---3---1--1--3---|
G|-2---0---0--2--0---|
D|-0---0---2--2--0---|
A|-0---2---3--0--X---|
E|-----3---------3---|

E|-0---4---1---0--3---|
B|-1---1---1---1--3---|
G|-0---0---2---2--0---|  x3
D|-2---2---3---2--0---|  
A|-3---3---3---0--X---|
E|---------1------3---|

Last Chords
E|-0---0--0--3---2-0--3---|
B|-1---0--1--0---3-1--3---|
G|-2---1--2--0---2-0--0---|
D|-2---2--2--0---0-2--0---|
A|-0---2--0--2---0-3--2---|
E|-----0-----3---2----3---|
Tap to rate this tab
 
# A B C D E F G H I J K L M N O P Q R S T U V W X Y Z