Song name
# A B C D E F G H I J K L M N O P Q R S T U V W X Y Z

Boyce Avenue - Just The Way Are tab

Key: C#
Tuning: C#  G#  C#  G#  C#  F

Intro:
  F|--13~--11-14--13~----11-14--13~--9~----9--11-9~------|
 C#|-----------------------------------------------------|
 G#|-----------------------------------------------------|
 C#|--12~--12-14--12~----12-14--12~--12~---12-14-12~-----|
 G#|-----------------------------------------------------|
 C#|-----------------------------------------------------|


Chorus:(2x)
  F|------------------------------------|
 C#|--7~--7/9---4~----5-5--/7---5---4~--| 
 G#|------------------------------------|  
 C#|------------------------------------|  
 G#|------------------------------------| 
 C#|------------------------------------|


Verse 2:
(after "her lips" part...)
  F|--13~--11-14--13~----11-14--13~--9~----9--11-9~------|
 C#|-----------------------------------------------------|
 G#|-----------------------------------------------------|
 C#|-----------------------------------------------------|
 G#|-----------------------------------------------------|
 C#|-----------------------------------------------------|


Bridge:
(the way you are)
  F|--13~--11-14--13~----11-14--13~--9~----9--11-9~------|
 C#|-----------------------------------------------------|
 G#|-----------------------------------------------------|
 C#|-----------------------------------------------------|
 G#|-----------------------------------------------------|
 C#|-----------------------------------------------------|
Tap to rate this tab
 
# A B C D E F G H I J K L M N O P Q R S T U V W X Y Z