Boyce Avenue - Every Teardrop Is A Waterfall tab

Tuning is DADEAe

Note that these are the chords - you'll have to listen to the song as certain places 
you'll need to repeat chords and add strumming.

 e|-----0-----------0-------0---0-0---0-0---0---0-0----------------------------|
 A|-----0-----------0-------0---0-0---0-0---0--1112----------------------------|
 E|-----0-------5-5-3---7-7-5--1210---0-0---5--1212----------------------------|
 D|-----0-------0-0-0---x-x-x---0-0--1211---4---0-0----------------------------|
 A|-----5-------5-5-5---4-4-4--12-9---0-0---x---0-0----------------------------|
 D|-----0-----------------------0-0--1211---4---0-0----------------------------|


 e|-----0-0---0-0--------------------------------------------------------------|
 A|-----0-0---0-0--------------------------------------------------------------|
 E|----10-9---7-9--------------------------------------------------------------|
 D|-----9-7---0-0--------------------------------------------------------------|
 A|-----0-0---7-9--------------------------------------------------------------|
 D|-----0-0---0-0--------------------------------------------------------------|


 e|----------------------------0-0---0-0---0---0-0----------------------------|
 A|----------------------------0-0---0-0---0--1112----------------------------|
 E|------------5-5-3---7-7-5--1210---0-0---5--1212----------------------------|
 D|------------0-0-0---x-x-x---0-0--1211---4---0-0----------------------------|
 A|------------5-5-5---4-4-4--12-9---0-0---x---0-0----------------------------|
 D|----------------------------0-0--1211---4---0-0----------------------------|


 e|-----0-0---0-0---0---0-0----------------------------|
 A|-----0-0---0-0---0--1112----------------------------|
 E|----12-10--0-0---5--1212----------------------------|
 D|-----0-0--1211---4---0-0----------------------------|
 A|----12-9---0-0---x---0-0----------------------------|
 D|-----0-0--1211---4---0-0----------------------------|


 e|-----0-0---0-0--------------------------------------------------------------|
 A|-----0-0---0-0--------------------------------------------------------------|
 E|----10-9---7-9--------------------------------------------------------------|
 D|-----9-7---0-0--------------------------------------------------------------|
 A|-----0-0---7-9--------------------------------------------------------------|
 D|-----0-0---0-0--------------------------------------------------------------|


 e|-----0---0--0--0------------------------------------------------------------|
 A|-----0---0--0--0------------------------------------------------------------|
 E|-----0---5--0--5------------------------------------------------------------|
 D|-----6---0--2--0------------------------------------------------------------|
 A|-----7---5--4--5------------------------------------------------------------|
 D|---------0--0--0------------------------------------------------------------|


 e|-----0-0---0-0--------------------------------------------------------------|
 A|-----0-0---0-0--------------------------------------------------------------|
 E|----10-9---7-9--------------------------------------------------------------|
 D|-----9-7---0-0--------------------------------------------------------------|
 A|-----0-0---7-9--------------------------------------------------------------|
 D|-----0-0---0-0--------------------------------------------------------------|


 e|-----0-0-----0-0------------------------------------------------------------|
 A|----1211-----0-0------------------------------------------------------------|
 E|----1212----10-9------------------------------------------------------------|
 D|-----0-0-----9-7------------------------------------------------------------|
 A|-----0-0-----0-0------------------------------------------------------------|
 D|-----0-0-----0-0------------------------------------------------------------|
Tap to rate this tab
 
# A B C D E F G H I J K L M N O P Q R S T U V W X Y Z