Song name
# A B C D E F G H I J K L M N O P Q R S T U V W X Y Z

Boyce Avenue - For The First Time tab

Boyce Avenue  For The First Time (The Script Cover)
http://www.youtube.com/watch?v=341vSMO5ISU

Tabbed by: Esperance

Support Boyce Avenue - Those guys really know how to make great music!

If you have any corrections/suggestions please drop me a line and feel free to rate this tab :)
>Florian-Le@live.de<

Tuning:
Standard(EADGBe)

x=mute
*=slap
@=He doesn't play that

>>I added a few little things<<

Chords:
  G    Dsus/F#  Em7    Cadd9
|-3------3------3------3------|
|-3------3------3------3------|
|-0------2------0------0------|
|-0------0------2------2------|
|-x------0------2------3------|
|-3------2------0-------------|


Intro:
|-3------3------3------3------|
|-3------3------3------3------|
|-0------2------0------0------|
|-0------0------2------2------|
|-x------0------2------3------|
|-3------2------0-------------|

Verse 1:
-----------------------------|
-3------3------3------3------|
-0------2------0------0------|
-0------0------2------2------| (@;finger plucked)
----------------------3------|
-3------2------0-------------|

|-3------3------3------3------|
|-3------3------3------3------|
|-0------2------0------0------|
|-0------0------2------2------| (palm muted downstrokes)
|-x------0------2------3------|
|-3------2------0-------------|

Pre-chrous 1:
-3------3------3------3------|
-3------3------3------3------|
-0------0------0------2------|
-2------2------0------0------|
-2------3------x------0------|
-0-------------3------2------|

-------------------------------3-------------|
-------3-------3-------3---2-----3-----------|
-----0-------0-------0-----1-------0---------|
---2-------2-------0-----------------0-------|
---------3-----------------------------x-----|
-0---------------3---------2-------------3---|

Chorus 1:
|-3------3------3------3------|
|-3------3------3------3------|
|-0------2------0------0------|
|-0------0------2------2------|
|-x------0------2------3------|
|-3------2------0-------------|

Verse 2:
|-3------3------3------3---3---|
|-3------3------3------3---3---|
|-0------2------0------0---0---|
|-0------0------2------2---2---|(Single Downstrokes)
|-x------0------2------3---3---|
|-3------2------0--------------|

Pre-chrous 2:
-3------3------3------3------|
-3------3------3------3------|
-0------0------0------2------|
-2------2------0------0------| (palm muted)
-2------3------x------0------|
-0-------------3------2------|

-------------------------------3-------------|
-------3-------3-------3---2-----3-----------|
-----0-------0-------0-----1-------0---------|
---2-------2-------0-----------------0-------|
---------3-----------------------------x-----|
-0---------------3---------2-------------3---|

Chrous 2:
|-3------3------3------3------|
|-3------3------3------3------|
|-0------2------0------0------|
|-0------0------2------2------|
|-x------0------2------3------|
|-3------2------0-------------|

Bridge:
-3------3------3------3------|
-3------3------3------3------|
-0------0------0------2------|
-2------2------0------0------| (@;single downstrum)
-2------3------x------0------|
-0-------------3------2------|

-----------------------------*---|
-------3-------3-------3---2-*---|
-----0-------0-------0-----1-*---|
---2-------2-------0---------*---|
---------3-------------------*---|
-0---------------3---------2-*---|

|-3------3------3------3------|
|-3------3------3------3------|
|-0------2------0------0------|
|-0------0------2------2------|
|-x------0------2------3------|
|-3------2------0-------------|

Chrous 3: 
|-3------3------3------3------|
|-3------3------3------3------|
|-0------2------0------0------|
|-0------0------2------2------|
|-x------0------2------3------|
|-3------2------0-------------|

Outro:
|-3------3------3------3------3~-|
|-3------3------3------3------3~-|
|-0------2------0------0------0~-|
|-0------0------2------2------0~-|
|-x------0------2------3------x~-|
|-3------2------0-------------3~-|
Tap to rate this tab
# A B C D E F G H I J K L M N O P Q R S T U V W X Y Z