Song name
# A B C D E F G H I J K L M N O P Q R S T U V W X Y Z

Boyce Avenue - Briane tab

I've tabbed out a few of the intro and outro tunes which are played by a second,
standard tuned guitar. The first guitar is tuned differently, you should check out the other
tab for it. I play everything mostly on the B and G snare for the sake of simplicity.
The high and low E aren't used.


-----------------------BOYCE AVENUE - BRIANE-----------------------
Tabbed by: Mawrtje
Email: just comment and I'll read it ;)

Tuning: Standard

Intro:
e|---------------------------------------------------------|
B|--7~--/12~-14-11\-7~-------------------------------------|
G|---------------------------------------------------------|
D|---------------------------------------------------------|
A|---------------------------------------------------------|
E|---------------------------------------------------------|
Play this twice, and when the drums start playing, play this twice:

e|-------------------------------------------------|
B|-------------------------------------------------|
G|--4-----4-6-----6-4-----9-8---8-6---6-4*---------|
D|------4-------4-------4--------------------------|
A|----------------------------9------9-------------|
E|-------------------------------------------------|
* play the second time only


Outro:
(the violin part)
e|---------------------------------------------------------|
B|---------------------------------------------------------|
G|--8--11--13--6--4-4------4-4-4h6--8s9-6-44---------------|
D|---------------------------------------------------------|
A|---------------------------------------------------------|
E|---------------------------------------------------------|
Play this a few times, and then play this until the end:
e|---------------------------------------------------------|
B|---------------------------------------------------------|
G|--11--9--8--9-11-----------------------------------------|
D|---------------------------------------------------------|
A|---------------------------------------------------------|
E|---------------------------------------------------------|

That's it. Good luck :)
Tap to rate this tab
 
# A B C D E F G H I J K L M N O P Q R S T U V W X Y Z