Song name
# A B C D E F G H I J K L M N O P Q R S T U V W X Y Z

Boyce Avenue - What Makes You Beautiful tab

What Makes You Beautiful – Boyce Avenue (One Direction)
http://www.youtube.com/watch?v=K0czg_TQAcA 

Tabbed by: Esperance aka „Floloschdar“ ;)

Support Boyce Avenue - Those guys really know how to make great music!

If you have any corrections/suggestions please drop me a line and feel free to rate this tab :)
>Florian-Le@live.de<

*You can vary a lot e.g. with the hammer on's and pull off's in these parts: 
-------------------|         --------------|
-------------------|         --------------|
-----2^4-----2^0---|         -----0^2-2-0~-|      
---2-------0-------|  and    ---2----------|
-------------------|         --------------|
-0-------2---------|         -0------------|


Tuning:
E A D G B E (standard)(capo 5 fret) 

x = mute
/ = slide
^ = hammer on or pull off
* = slap

Intro:
----------------------------|
----------------------------|
------0-----0-----0-----2---|
---0------0-----2-----0-----|
--------3-------------------|
-3------------0-----2-------|

Verse 1:
----------------------------|
----------------------------|
------0-----0-----0-----2---| (play 2x)
---0------0-----2-----0-----|
--------3-------------------|
-3------------0-----2-------|

Prechorus:
---------------------------------------|
---------------------------------0-----|
------0-----0-----0-----2---2^0----0---|
---0------0-----2-----0---------0------|
--------3------------------------------|
-3------------0-----2------------------|

Chorus 1:
---------------------------------|
---------------------------------|  
-----2^4-----0-----0^2-----2^0---|  (play 4x)               
---0-------2-----2-------0-------|   
---------3-----------------------|
-3-------------0-------2---------|

---------------*-|
---------------*-|
-----2^4-----0-*-|               
---0-------2---*-|
---------3-----*-|
-3-------------*-|

------------------------------|
-----1^3----------------------|          
-------------0-----0^2-2-0~---|                         
---0-------2-----2------------|        
---------3--------------------|
-3-------------0--------------|

------------------------------|
-----1^3----------------------|          
-------------0-----0^2-2------|                         
---0-------2-----2-----0------|        
---------3--------------------|
-3-------------0--------------|

Verse 2:
----------------------------|
----------------------------|
------0-----0-----0-----2---| (play 2x)
---0------0-----2-----0-----|
--------3-------------------|
-3------------0-----2-------|

Prechorus:
---------------------------------------|
---------------------------------0-----|
------0-----0-----0-----2---2^0----0---|
---0------0-----2-----0---------0------|
--------3------------------------------|
-3------------0-----2------------------|

Chorus 2:
---------------------------------|
---------------------------------|  
-----2^4-----0-----0^2-----2^0---|  (play 4x)                  
---0-------2-----2-------0-------|   
---------3-----------------------|
-3-------------0-------2---------|

---------------*-|
---------------*-|
-----2^4-----0-*-|               
---0-------2---*-|
---------3-----*-|
-3-------------*-|

Solo:
--------------------------------------------|
-3/6~-3~-1^0--------------------------------|
-------------0---2-4-----4-0-2-----2-2^0-0~-| (play 2x)
---------------0-------0---------0----------|
---------3----------------------------------|
-0-------------------3---------2------------|

Interlude:
-----------------|
-----------------|
-0---0---0---2---| (play 2x)
-0---2---2---0---|
-----3-----------|
-3-------0---2---|

---------------------------------|
---------------------------------|  
-----2^4-----0-----0^2-----2^0---| (play 4x)                    
---0-------2-----2-------0-------|   
---------3-----------------------|
-3-------------0-------2---------|

Chorus 3:
---------------------------------|
---------------------------------|  
-----2^4-----0-----0^2-----2^0---|  (play 4x)                 
---0-------2-----2-------0-------|   
---------3-----------------------|
-3-------------0-------2---------|

-------------------------------|
-----1^3-----------------------|          
-------------0-----0^2-----2^0-|                         
---0-------2-----2-------0-----| (play 2x)        
---------3---------------------|
-3-------------0-------2-------|

---------------------------------|
---------------------------------|  
-----2^4-----0-----0^2-----2^0---|  (play 3x)                 
---0-------2-----2-------0-------|   
---------3-----------------------|
-3-------------0-------2---------|

---------------*-|
---------------*-|
-----2^4-----0-*-|               
---0-------2---*-|
---------3-----*-|
-3-------------*-|
Tap to rate this tab
# A B C D E F G H I J K L M N O P Q R S T U V W X Y Z