Song name
# A B C D E F G H I J K L M N O P Q R S T U V W X Y Z

Boyce Avenue - What Makes You Beautiful tab

One Direction - What Makes You Beautiful
Tabbed by: Tyler Sherrod

video of Boyce Avenue playing it:
http://www.youtube.com/watch?v=K0czg_TQAcA&feature=feedu

Tuning: Standard (capo 5th fret)

^ = hammer-on/pull-off
/ = slide

Intro:
----------------------------------|
----------------------------------|
-------0-------0-------0-------2--|
-----0-------0-------2-------0----|
-----------3---------------0------|
---3---------------0--------------|

Verse 1:
----------------------------------|
----------------------------------|
-------0-------0-------0-------2--|
-----0-------0-------2-------0----| (play 3x)
-----------3---------------0------|
---3---------------0--------------|

Chorus 1 & 2:
-------------|
-------------|
---2^0---0---|
-------0-----|
-------------|
-------------|

--------------------------------------|
--------------------------------------|
-------2^4-------0-------0-----2---0--| (play 4x)
-----0---------0-------2---------0----|
-------------3---------------0--------|
---3-----------------0----------------|

---------------------|
---------------------|
-------1^3-------0---|
-----0---------0-----|
-------------3-------|
---3-----------------|

Pre-verse 2:
------------------------------------------------------------------------|
-------1^3-----------------------------------1^3------------------------|
-----------------0-------0^2-----2---0-----------------0-------0^2------|
-----0---------0-------2-----------0-------0---------0-------0----------|
-------------3-----------------0-------------------3-----------------0--|
---3-----------------0-------------------3-----------------0------------|

Verse 2:
----------------------------------|
----------------------------------|
-------0-------0-------0-------2--|
-----0-------0-------2-------0----| (play 3x)
-----------3---------------0------|
---3---------------0--------------|

Solo:
-----------------------------------------------------------------------|
---3/5-------3-----1^0----------0--------------------------------------|
-------0-------0-------0------2---------4------0---2-----2----2^0---0--| (play 2x)
---------0---------------0------------0------0---------0---------------|
---0---------------3-------3-------------------------------------------|
-------------3----------------------3------3---------2------2----------|

Chorus 3:
-----------------------------------|
-----------------------------------|
---0---0---0---2---0---0---0---2---|
---0---2---2---0---0---2---2---0---|
-------3-------0-------3-------0---|
---3-------0-------3-------0-------|

--------------------------------------|
--------------------------------------|
-------2^4-------0-------0-----2---0--| (play 4x)
-----0---------0-------2---------0----|
-------------3---------------0--------|
---3-----------------0----------------|

Chorus 4:
--------------------------------------|
--------------------------------------|
-------2^4-------0-------0-----2---0--| (play 4x)
-----0---------0-------2---------0----|
-------------3---------------0--------|
---3-----------------0----------------|

Chorus 5:
-------------------------------------------------------------------------------|
-------1^3-----------------------------------1^3-------------------------------|
-----------------0-------0^2-----2---0-----------------0-------0^2-----2---0---|
-----0---------0-------2-----------0-------0---------0-------0-----------0-----|
-------------3-----------------0-------------------3-----------------0---------|
---3-----------------0-------------------3-----------------0-------------------|

--------------------------------------|
--------------------------------------|
-------2^4-------0-------0-----2---0--| (play 3x)
-----0---------0-------2---------0----|
-------------3---------------0--------|
---3-----------------0----------------|

---------------------|
---------------------|
-------2^4-------0---|
-----0---------0-----|
-------------3-------|
---3-----------------|
Tap to rate this tab
 
# A B C D E F G H I J K L M N O P Q R S T U V W X Y Z