Song name
# A B C D E F G H I J K L M N O P Q R S T U V W X Y Z

Boyce Avenue - Wherever You Will Go tab

This is my first ever tab, hope you like it.(let me know if you find any mistakes)
Tabbed by Blake
Wherever You Will Go(Boyce Avenue cover)
capo 2nd fret, standard tuning. 

Intro:

e|----------------|-----------------|----------------|-----------------|
B|-----------1----|-----------1-----|-----------1----|-----1-----1--1--|
G|-----0---0---0--|-----0---0---0---|-----0---0---0--|-------0---0--0--|
D|---2---2-------2|---0---0-------0-|---2---2-------2|---0-------------|x1
A|-3--------------|-2---------------|-0--------------|-----------------|
E|----------------|-----------------|----------------|-1--------1--3---|

Verse 1:

e|----------------|-----------------|----------------|-----------------|
B|-----------1----|-----------1-----|-----------1----|-----1-----1--1--|
G|-----0---0---0--|-----0---0---0---|-----0---0---0--|-------0---0--0--|
D|---2---2-------2|---0---0-------0-|---2---2-------2|---0-------------| x3
A|-3--------------|-2---------------|-0--------------|-----------------|
E|----------------|-----------------|----------------|-1--------1--3---|

pre chorus:

e|----------------|-----------------|----------------|
B|-----------1----|-----------1-----|-----------1----|
G|-----0---0---0--|-----0---0---0---|-----0---0---0--|
D|---2---2-------2|---0---0-------0-|---2---2-------2|
A|-3--------------|-2---------------|-0--------------|
E|----------------|-----------------|----------------|

e|-----------------|
B|-----------------|
G|-----------------|  (slight palm mute)
G|-3-3-3-3-3-3-3-3-|
A|-3-3-3-3-3-3-3-3-|
E|-1-1-1-1-1-1-1-1-|

Chorus:

e|--0---0-----0---|--0---0-----0---|--0---0-----0---|--0---0---0--|
B|--1---0-----1---|--1---0-----1---|--1---0-----1---|--1---1---1--|
G|--0---0-----0---|--0---0-----0---|--2---2-----2---|--2---2---2--|x2
G|--2---2-----2---|--0---0-----0---|--2---2-----2---|--3---3---3--|
A|--3---3-----3---|--2---2-----2---|--0---0-----0---|--3---3---3--|
E|--x---x-----x---|--3---3-----3---|--x---x-----x---|--x---x---x--|  

Verse 2:

e|----------------|-----------------|----------------|-----------------|
B|-----------1----|-----------1-----|-----------1----|-----1-----1--1--|
G|-----0---0---0--|-----0---0---0---|-----0---0---0--|-------0---0--0--|
D|---2---2-------2|---0---0-------0-|---2---2-------2|---0-------------| x3
A|-3--------------|-2---------------|-0--------------|-----------------|
E|----------------|-----------------|----------------|-1--------1--3---|

pre chorus:

e|----------------|-----------------|----------------|---x---|
B|-----------1----|-----------1-----|-----------1----|---x---|
G|-----0---0---0--|-----0---0---0---|-----0---0---0--|---x---|
D|---2---2-------2|---0---0-------0-|---2---2-------2|---x---|
A|-3--------------|-2---------------|-0--------------|---x---|
E|----------------|-----------------|----------------|---x---|

Chorus:

e|--0---0-----0---|--0---0-----0---|--0---0-----0---|--0---0---0--|
B|--1---0-----1---|--1---0-----1---|--1---0-----1---|--1---1---1--|
G|--0---0-----0---|--0---0-----0---|--2---2-----2---|--2---2---2--|x2
D|--2---2-----2---|--0---0-----0---|--2---2-----2---|--3---3---3--|
A|--3---3-----3---|--2---2-----2---|--0---0-----0---|--3---3---3--|
E|--x---x-----x---|--3---3-----3---|--x---x-----x---|--x---x---x--| 

Bridge:
e|--0---0-----0---|--0---0-----0---|--0---0-----0---|--0---0---0--|
B|--1---1-----1---|--1---1-----1---|--1---0-----1---|--0---0---0--|
G|--2---2-----2---|--2---2-----2---|--0---0-----0---|--0---0---0--|
D|--2---2-----2---|--3---3-----3---|--0---0-----0---|--2---2---2--|
A|--0---0-----0---|--3---3-----3---|--2---2-----2---|--2---2---2--|
E|--x---x-----x---|--x---x-----x---|--3---3-----3---|--x---x---x--| 

e|--0---0-----0---|--0---0-----0---|--0---0-----0---|------------|
B|--1---1-----1---|--1---1-----1---|--1---0-----1---|------------|
G|--2---2-----2---|--2---2-----2---|--0---0-----0---|------------|
D|--2---2-----2---|--3---3-----3---|--0---0-----0---|--2-2-2-2-2-|(palm 
A|--0---0-----0---|--3---3-----3---|--2---2-----2---|--2-2-2-2-2-|   mute)
E|--x---x-----x---|--x---x-----x---|--3---3-----3---|--0-0-0-0-0-| 

Verse 3:

e|----------------|-----------------|----------------|-----------------|
B|-----------1----|-----------1-----|-----------1----|-----1-----1--1--|
G|-----0---0---0--|-----0---0---0---|-----0---0---0--|-------0---0--0--|
D|---2---2-------2|---0---0-------0-|---2---2-------2|---0-------------| x1
A|-3--------------|-2---------------|-0--------------|-----------------|
E|----------------|-----------------|----------------|-1--------1--3---|

pre chorus:

e|----------------|-----------------|----------------|
B|-----------1----|-----------1-----|-----------1----|
G|-----0---0---0--|-----0---0---0---|-----0---0---0--|
D|---2---2-------2|---0---0-------0-|---2---2-------2|
A|-3--------------|-2---------------|-0--------------|
E|----------------|-----------------|----------------|

e|-----------------|
B|-----------------|
G|-----------------|  (slight palm mute)
G|-3-3-3-3-3-3-3-3-|
A|-3-3-3-3-3-3-3-3-|
E|-1-1-1-1-1-1-1-1-|

Chorus:

e|--0---0-----0---|--0---0-----0---|--0---0-----0---|--0---0---0--|
B|--1---0-----1---|--1---0-----1---|--1---0-----1---|--1---1---1--|
G|--0---0-----0---|--0---0-----0---|--2---2-----2---|--2---2---2--|x5
D|--2---2-----2---|--0---0-----0---|--2---2-----2---|--3---3---3--|
A|--3---3-----3---|--2---2-----2---|--0---0-----0---|--3---3---3--|
E|--x---x-----x---|--3---3-----3---|--x---x-----x---|--x---x---x--| 

e|--0---0-----0---|--0---0-----0---|--0---0-----0---|
B|--1---0-----1---|--1---0-----1---|--1---0-----1---|
G|--0---0-----0---|--0---0-----0---|--2---2-----2---|
D|--2---2-----2---|--0---0-----0---|--2---2-----2---|
A|--3---3-----3---|--2---2-----2---|--0---0-----0---|
E|--x---x-----x---|--3---3-----3---|--x---x-----x---|


Outro:

e|--0----0-----0-----|
B|--1----1-----1-----|
G|--2----2-----0-----|(strum hard down)
D|--3----3-----3-----|
A|--3----3-----3-----|
E|--x----x-----x-----|
Tap to rate this tab
# A B C D E F G H I J K L M N O P Q R S T U V W X Y Z