Guitaretab - guitar tabs
Song name
# A B C D E F G H I J K L M N O P Q R S T U V W X Y Z

Boyce Avenue - Briane tab

-------------------------------------------------------------------------------
                             Boyce Avenue - Briane
-------------------------------------------------------------------------------
Tabbed by: Bryan

Email: Devil-driver2902@hotmail.com

Tuning: Standard ( E A D G B E )

Fabian (Electric Guitar)

Video > http://www.youtube.com/watch?v=c_ezxfiZ8vI
Hope you like it ! ;) 

* /   slide up
* \   slide down
* ~   vibrato
* ( ) Do only one time

E|------------------------------|
B|-7~------12~---14~---11----7--|
G|---------------------11----6--|
D|------------------------------|
A|------------------------------|
E|------------------------------|

E|----------------------------------------|
B|----------------------------------------|
G|-4-----4-6-----6-4----9-8---8-6----6-8--|
D|-----4-------4------4-----9-----9-------|
A|----------------------------------------|
E|----------------------------------------|

E|--------------------------------------|
B|--------------------------------------|
G|---4-6-----6-4------11-9---9-8---6-8--|
D|-4-------4--------9------9-----9------|
A|--------------------------------------|
E|--------------------------------------|

E|---------------------|
B|-9~------7~------4~--|   (2)
G|---------------------| (times)
D|---------------------|
A|---------------------|
E|---------------------|

E|-------------------------------------------------------------|
B|-------------------------------------------------------------|   (2)
G|-(4)-----6--11-9--8\-4--6--3--4----6--11-9--8\-4--8\6--3--4--| (times)
D|-------------------------------------------------------------|
A|-------------------------------------------------------------|
E|-------------------------------------------------------------|

E|------------------------------------|
B|------------------------------------|
G|---4-6-----6-4----9-8---8-6----6-8--|
D|-4-------4------4-----9-----9-------|
A|------------------------------------|
E|------------------------------------|

E|--------------------------------------|
B|--------------------------------------|
G|---4-6-----6-4------11-9---9-8---6-8--|
D|-4-------4--------9------9-----9------|
A|--------------------------------------|
E|--------------------------------------|
[ Tab from: http://www.guitaretab.com/b/boyce-avenue/306497.html ]
E|---------------------|
B|-9~------7~------4~--|   
G|---------------------|
D|---------------------|
A|---------------------|
E|---------------------|

E|-----------------------------------------------------------|
B|-----------------------------------------------------------|   (2)
G|-4-----6--11-9--8\-4--6--3--4----6--11-9--8\-4--8\6--3-(4)-| (times)
D|-----------------------------------------------------------|
A|-----------------------------------------------------------|
E|-----------------------------------------------------------|

E|-7---7---7---6---7---7---9---11---7---7---7---6---7---7---11---9----|
B|---7---7---7---7---7---7---7----7---7---7---7---7---7---7----7---7--|
G|--------------------------------------------------------------------|
D|--------------------------------------------------------------------|
A|--------------------------------------------------------------------|
E|--------------------------------------------------------------------|

E|-7---7---7---6---7---7---9---11---7---7---7---6---7---7---6---6------|
B|---7---7---7---7---7---7---7----7---7---7---7---7---7---7---7---7-9--|
G|---------------------------------------------------------------------|
D|---------------------------------------------------------------------|
A|---------------------------------------------------------------------|
E|---------------------------------------------------------------------|

E|---------------|
B|---------------|
G|-8~---6~---4~--|
D|---------------|
A|---------------|
E|---------------|

E|--------------------------|
B|-9~------7~---------------|   
G|-------------8~------6~---|
D|--------------------------|
A|--------------------------|
E|--------------------------|

E|--------------------------------------------------------------|
B|--------------------------------------------------------------|   
G|--------6--11-9--8\-4--6--3--4----6--11-9--8\-4--8\6--3--4----| 
D|-4/9----------------------------------------------------------|
A|--------------------------------------------------------------|
E|--------------------------------------------------------------|


E|-----------------------------------------------------------|
B|-----------------------------------------------------------|  
G|-4-----6--11-9--8\-4--6--3--4----6--11-9--8\-4--8\6--3--4--| 
D|-----------------------------------------------------------|
A|-----------------------------------------------------------|
E|-----------------------------------------------------------|
Related for Briane tab
Briane chords by Boyce Avenue