Song name
# A B C D E F G H I J K L M N O P Q R S T U V W X Y Z

Boyce Avenue - Ellie Goulding - Lights tab

i think i got the intro tabs
tuning:C# G# C# F# A# C#

C#----9----9------9---9-----|
G#--------------------------|
C#--------------------------|
F#--7---7----7--7---7---7---|
A#--------------------------|
C#--------------------------|


C#---7-----7-------7---7----|
G#--------------------------|
C#--------------------------|
F#-6----6----6--6----6---6--|
A#--------------------------|
C#--------------------------|

C#---5---5------5---5-------|
G#--------------------------|
C#--------------------------|
F#-4---4---4--4---4---4-----|
A#--------------------------|
C#--------------------------|


C#---2---2------2---2-------|
G#--------------------------|
C#--------------------------|
F#-0---0---0--0---0---0-----|
A#--------------------------|
C#--------------------------|
Tap to rate this tab
# A B C D E F G H I J K L M N O P Q R S T U V W X Y Z