Song name
# A B C D E F G H I J K L M N O P Q R S T U V W X Y Z

Boyce Avenue - Hevaven tab

|-------------------------------------------------------------------------------|
|-------8-8h10--6h8---------5-5h6p5-------------8-8h10--8~----------------------|
|--7h8---------------4\5--7---------7-5-----7h8-----------------7-9^-7---5-7----|
|---------------------------------------7--------------------10-----------------|
|-------------------------------------------------------------------------------|
|-------------------------------------------------------------------------------|


|-----------------------------------------|
|-5p4p2-----------------------------------|
|-------5p4p2-----------------------------|
|--------------2--------------------------|
|-----------------------------------------|
|-----------------------------------------|
GOOD LUCk
Yaniv Suriyano
Tap to rate this tab
# A B C D E F G H I J K L M N O P Q R S T U V W X Y Z