Song name
# A B C D E F G H I J K L M N O P Q R S T U V W X Y Z

Boyce Avenue - Lights tab

Tabbed By: Juan Prebot-Torres
Email: juanpablo9100@yahoo.com

Tuning: C# Ab C# F Bb C#
     ** If You Are Having Trouble With The Tuning, Go To This Link And Insert
        The Tuning Manually:  
        http://www.fender.com/community/tuner/#/12-custom-tuning 


Intro(Palm Muted):
C# |-------------------------------------------------|
Ab |-------------------------------------------------|
C# |--8---8---8---8---8---8---7---7---7---7---7---7--|
F  |-------------------------------------------------|
Bb |----------------------------0---0--------0---0---|
C# |----9---9-------9---9----------------------------|


C# |-------------------------------------------------|
Ab |-------------------------------------------------|
C# |--5---5---5---5---5---5---1---1---1---1---1---1--|
F  |-------------------------------------------------|
Bb |-------------------------------------------------|
C# |----5---5-------5---5-------2---2-------2---2----|
 

Verse(Palm Muted):
C# |-------------------------------------------------|
Ab |-------------------------------------------------|
C# |--8---8---8---8---8---8---7---7---7---7---7---7--|
F  |-------------------------------------------------|
Bb |----------------------------0---0--------0---0---|
C# |----9---9-------9---9----------------------------|


C# |-------------------------------------------------|
Ab |-------------------------------------------------|
C# |--5---5---5---5---5---5---1---1---1---1---1---1--|
F  |-------------------------------------------------|
Bb |-------------------------------------------------|
C# |----5---5-------5---5-------2---2-------2---2----|

** On Fourth Time Around(Palm Muted):
C# |-------------------------------------------------|
Ab |-------------------------------------------------|
C# |--8---8---8---8---8---8---7---7---7---7---7---7--|
F  |-------------------------------------------------|
Bb |----------------------------0---0--------0---0---|
C# |----9---9-------9---9----------------------------|


C# |-----------------------------|
Ab |-----------------------------|   
C# |--5---5---5---5---5---5---1--|   ** Let 2-1
F  |-----------------------------|       Ring
Bb |-----------------------------|
C# |----5---5-------5---5-----2--|


Chorus:  (My Strumming Pattern) 
*V Means Down Strum 
*^ Means Up Strum
      v v  v ^ v  ^ ^ v v ^ v ^
C# |--0-0--0-0-0--0-0-0-0-0-0-0--|
Ab |--0-0--0-0-0--0-0-0-0-0-0-0--|
C# |--8-8--8-8-8--7-7-7-7-7-7-7--|
F  |--0-0--0-0-0--7-7-7-7-7-7-7--|
Bb |--0-0--0-0-0--0-0-0-0-0-0-0--|
C# |--9-9--9-9-9--0-0-0-0-0-0-0--|

      v v  v ^ v  ^ ^ v v ^ v ^
C# |--0-0--0-0-0--0-0-0-0-0-0-0--|
Ab |--0-0--0-0-0--0-0-0-0-0-0-0--|
C# |--5-5--5-5-5--1-1-1-1-1-1-1--|
F  |--0-0--0-0-0--0-0-0-0-0-0-0--|
Bb |--0-0--0-0-0--2-2-2-2-2-2-2--|
C# |--5-5--5-5-5--2-2-2-2-2-2-2--|


** On Fourth Time Around:
      v v  v ^ v  ^ ^ v v ^ v ^
C# |--0-0--0-0-0--0-0-0-0-0-0-0--|
Ab |--0-0--0-0-0--0-0-0-0-0-0-0--|
C# |--8-8--8-8-8--7-7-7-7-7-7-7--|
F  |--0-0--0-0-0--7-7-7-7-7-7-7--|
Bb |--0-0--0-0-0--0-0-0-0-0-0-0--|
C# |--9-9--9-9-9--0-0-0-0-0-0-0--|

      v v  v ^ v  ^ 
C# |--0-0--0-0-0--0--|
Ab |--0-0--0-0-0--0--|
C# |--5-5--5-5-5--1--|  *Let Last
F  |--0-0--0-0-0--0--|    Chord 
Bb |--0-0--0-0-0--2--|     Ring
C# |--5-5--5-5-5--2--|



Bridge:

C# |------------------0-------------------0----|
Ab |------0-------0-----------0-------0--------|
C# |--2-------2-----------7-------7------------|
F  |-------------------------------------------|
Bb |----------------------0-0-0-0-0-0-0-0-0-0--|
C# |--0-0-0-0-0-0-0-0-0-0----------------------|


C# |------------------0------------------------|
Ab |------0-------0-----------0-------0--------|
C# |--5-------5-----------1-------1-------0----|
F  |-------------------------------------------|
Bb |-------------------------------------------|
C# |--5-5-5-5-5-5-5-5-5-5-2-2-2-2-2-2-2-2-2-2--|


Second Time Around:

C# |------------------0-------------------0----|
Ab |------0-------0-----------0-------0--------|
C# |--2-------2-----------7-------7------------|
F  |-------------------------------------------|
Bb |----------------------0-0-0-0-0-0-0-0-0-0--|
C# |--0-0-0-0-0-0-0-0-0-0----------------------|


C# |------------------0------|
Ab |------0-------0----------|
C# |--5-------5-----------1--|  *Let 2-1
F  |-------------------------|    Ring
Bb |-------------------------|
C# |--5-5-5-5-5-5-5-5-5-5-2--|



Order:
Intro
Verse
Chorus
Verse
Chorus
Bridge
Chorus

And That Is A11!! :)  
**Any Questions Or Comments, Feel Free To Email Me!!
Tap to rate this tab
# A B C D E F G H I J K L M N O P Q R S T U V W X Y Z