Guitaretab - guitar tabs
Song name
# A B C D E F G H I J K L M N O P Q R S T U V W X Y Z

Boyce Avenue - Titanium tab

Titanium - Boyce Avenue (Cover)
Tabbed By: Tehotherviray

This is my first tab so please give me feedback and comment/message for any 
suggestions or mistakes... Enjoy!

Tuning: Standard

Intro:

Slightly Palm Muted
E|------------------------------------------------------------------------------|
B|------------------------------------------------------------------------------|
G|-------2---4---2----------0---2---0---------2---4---2--5----4---2---4---0-----|
D|-----0---0---0---0------0---0---0---0-----0---0---0-------0---0---0---0---0---|
A|------------------------------------------------------------------------------|
E|---3-----------------2-----------------0----------------0---------------------|

Verse (x4):

Slightly Palm Muted
E|------------------------------------------------------------------------------|
B|------------------------------------------------------------------------------|
G|-------2---4---2----------0---2---0---------2---4---2--5----4---2---4---0-----|
D|-----0---0---0---0------0---0---0---0-----0---0---0-------0---0---0---0---0---|
A|------------------------------------------------------------------------------|
E|---3-----------------2-----------------0----------------0---------------------|


Chorus (x4):
[ Tab from: http://www.guitaretab.com/b/boyce-avenue/323888.html ]
Slightly Palm Muted
  
       C                                 D          Bm           Em
E|-----0----------2----------2------------0-------------------------------|
B|-----1----------3----------3------------0-------------------------------|
G|-----0----------2----------4------------0-------------------------------|
D|-----2----------0----------4------------2-------------------------------|
A|-----3----------x----------2------------2-------------------------------|
E|-----x----------x----------2------------0-------------------------------|

Then (x2): 

Strummed

       C                                 D          Bm           Em
E|-----0----------2----------2------------0-------------------------------|
B|-----1----------3----------3------------0-------------------------------|
G|-----0----------2----------4------------0-------------------------------|
D|-----2----------0----------4------------2-------------------------------|
A|-----3----------x----------2------------2-------------------------------|
E|-----x----------x----------2------------0-------------------------------|


Bridge:

Single Strummed

       C                                 D          Bm           Em
E|-----0----------2----------2------------0-------------------------------|
B|-----1----------3----------3------------0-------------------------------|
G|-----0----------2----------4------------0-------------------------------|
D|-----2----------0----------4------------2-------------------------------|
A|-----3----------x----------2------------2-------------------------------|
E|-----x----------x----------2------------0-------------------------------|



Song Order:
Intro
Verse
Chorus
Verse
Chorus
Bridge
Chorus (First part is palm muted)

Related for Titanium tab
Titanium chords by Boyce Avenue