Song name
# A B C D E F G H I J K L M N O P Q R S T U V W X Y Z

Boyce Avenue - Fast Car tab

Tracy Chapman  Fast Car
Cover by: Boyce Avenue
www.YouTube.com/BoyceAvenue

Tuning: FA#D#G#CF (Capo 2nd Fret)

/ = slide up
\ = slide down
h = hammer on
p = pull off
x = mute
<> = armonic

Acoustic Guitar 1: 

Introx2
--------------------------------|
--------0/3-0--55--10---99------|
<7>-----------------------------|
---<7>--------------------------|
-------------------9----77------|
---------------55---------------|

--------------------------------|
-0/3-0--55--10--10-12-10-9-10-9-|
--------------------------------|
--------------------------------|
------------9-------------------|
--------55----------------------|

-------------------------|
-0/3-0--55--10---99------|
-------------------------|
-------------------------|
------------9----77------|
--------55---------------|

Verse x23
-------------------------|
-0/3-0--55--10---99------|
-------------------------|
-------------------------|
------------9----77------|
--------55---------------|

Chorus:
-0----0----0---2----0-0--2----0-0--2-2--0-2-----|
-1----0----1---3----1-0--3----1-0--3-3--1-3-----|
-0----0----0---2----0-0--2----0-0--2-2--0-2-----|
-2----2----2--------2-2-------2-2-------2-------|
-3----2----3--------3-2-------3-2-------3-------|
-x----0----x--------x-0-------x-0-------x-------|

Verse 
-------------------------|
-0/3-0--55--10---99------|
-------------------------|
-------------------------|
------------9----77------|
--------55---------------|

Chorus:
-0----0----0---2----0-0--2----0-0--2-2--0-2-----|
-1----0----1---3----1-0--3----1-0--3-3--1-3-----|
-0----0----0---2----0-0--2----0-0--2-2--0-2-----|
-2----2----2--------2-2-------2-2-------2-------|
-3----2----3--------3-2-------3-2-------3-------|
-x----0----x--------x-0-------x-0-------x-------|


Verse 
---------------------------|
-0/3-0--55--10---99--/7----|
---------------------------|
---------------------------|
------------9----77--------|
--------55-----------------|

Verse/end
-------------------------|
-0/3-0--55--10---99------|
-------------------------|
-------------------------|
------------9----77------|
--------55---------------|
Tap to rate this tab
# A B C D E F G H I J K L M N O P Q R S T U V W X Y Z