Song name
# A B C D E F G H I J K L M N O P Q R S T U V W X Y Z

Boyce Avenue - Heaven tab

Boyce Avenue - Heaven
Tunning: half step down ( Eb Bb Gb Db Ab Eb )

Hope you like it, 99% correct I think. :)

 Intro

    C        Cadd11      C        Cadd11
E|--------------------|--------------------|
B|-----1--------1-----|-----1--------1-----|
G|---0---0----0---0-0-|---0---0----0---0-0-|
D|-2------2-3------3--|-2------2-3------3--|
A|-3--------3---------|-3--------3---------|
E|--------------------|--------------------|

 Verse 1

    C       Am      G            Dm        Am        Dm        G
E|---------------------3------|-----1-------------------1---------3-----|
B|-----1-------1-------3------|--------3------1------------3------3-----|
G|----------------------------|---2---2----------2----2---2----------0--|
D|-----------2-------0--------|-0-----------2---2---0-----------0---0---|
A|-3-------0------------------|-----------0-----------------------------|
E|-----------------3----------|-------------------------------3---------|  
 
    C          Am         G            Dm        Am        Dm         Am         G
E|---------------------------3------|-----1--------------------1--------------------3------|
B|-----1----------1----------3------|--------3------1-------------3------1----------3------|
G|--------0----------2--------------|-2-2---2----------2----2----2----------2--------------|
D|-2-2---2----2-2-- 2------0--------|-0---------2-2---2---0------------2---2------0--------|
A|-3----------0---------------------|-----------0--------------------0---------------------|
E|-----------------------3----------|-------------------------------------------3----------|

Chorus

    F     F/G   Am      C          F        F     F/G   Am     G 
E|---------------------------------------|-----------------------------------|
B|----1-----1------1-------1----------1--|----1-----1------1------3----------|
G|---2-----2-----2-----------0-0----2----|---2-----2-----2----------0--------| x2
D|-----------------------2----2----------|----------------------0------------| 
A|-------------0-----023-----------------|-------------0---------------------|
E|-1-----3------------------------1------|-1-----3------------3-------3------|

Intro

Verse 2

C   Am                    G
Oh, once in your life you find someone
         Dm               Am
Who will turn your world around
          Dm                     G
Bring you up when you're feeling down

C     Am                            G
Yeah, nothing could change what you mean to me
           Dm                Am
Oh there's lots that I could say
         Dm          Am          G
But just hold me now, 'cause our love will light the way


Chorus

F           G          Am
Baby you're all that I want
            C                F
When you're lying here in my arms
F              G         Am             G
I'm finding it hard to believe we're in heaven
F           G          Am
And love is all that I need
      C                     F
And I found it here in your heart
F            G       Am           G
It isn't too hard to see we're in heaven


Bridge

Dm                     C      F
    I've been waiting for so long
                   G    Am
    For something to arrive
                       G         C-Dm
    For love to come along
Dm                      C       F
    Now our dreams are coming true
                                   C
    Through the good times and the bad
                  G
    Yeah, I'll be standing there by you

Solo ( chorus instrumental)

E|---------------------------------------------------------------------|
B|-------8h10b11r10\8-6h8\-------5-5h6p5--------------/8-8-8h10vp8-8\--|
G|-7h9-9---------------------5-7---------7-5---------------------------|
D|-------------------------------------------5h7v----------------------|
A|---------------------------------------------------------------------|
E|---------------------------------------------------------------------|

-----------------------------------|
-----------------------------3p1p0-|
-7-9-9b11r9-7v\5-5h7---5\4p2-------|
-----------------------------------|
-----------------------------------|
-----------------------------------|

Chorus

    F     F/G   Am      C          F        F     F/G   Am     G 
E|---------------------------------------|-----------------------------------|
B|----1-----1------1-------1----------1--|----1-----1------1------3----------|
G|---2-----2-----2-----------0-0----2----|---2-----2-----2-------------------| 
D|-----------------------2----2----------|----------------------0------------| 
A|-------------0-----023-----------------|-------------0---------------------|
E|-1-----3------------------------1------|-1-----3------------3--------------|

    F     F/G   Am      C          F        F     F/G   Am     G 
E|---------------------------------------|--------------------3--------------|
B|----1-----1------1-------1----------1--|----1-----1------1--3->        ----|
G|---2-----2-----2-----------0-0----2----|---2-----2-----2----0-> strum  ----| 
D|-----------------------2----2----------|--------------------0->        ----| 
A|-------------0-----023-----------------|-------------0------2--------------|
E|-1-----3------------------------1------|-1-----3------------3--------------|

F    G    Am      C    F
Oooooooooooooh
F                 G            Am           G
You're all that I want, you're all that I need

    C        Cadd11      C        Cadd11
E|--------------------|--------------------|-------------------------------|
B|-----1--------1-----|-----1--------1-----|-----1----------1--------------|
G|---0---0----0---0-0-|---0---0----0---0-0-|---0---0-----0-----0----0------|
D|--------2-3------3--|--------2-3------3--|--------2-3----------3---------|
A|-3--------3---------|-3--------3---------|-3--------3----------------3---|
E|--------------------|--------------------|-------------------------------|
                   We're in heaven,     we're in heaven,        we're in heaven.






h = hammer on
p = pull off
b = bend
r = release bend
v = vibrato
Tap to rate this tab
# A B C D E F G H I J K L M N O P Q R S T U V W X Y Z