Song name
# A B C D E F G H I J K L M N O P Q R S T U V W X Y Z

Boyce Avenue - Your Biggest Fan tab

 Tuning: D# G C F A# D         x= mute string

(palm muting)
 D  |---------------------|
 A# |---------------------|
 F  |--------------2------|
 C  |----2----3----2----3-|   (x4) 
 G  |----3----3----0----3-|
 D# |----x----0----x----0-|

 (without palm muting)

 D  |----0----0----0----0-----0----0----0----0----0-|
 A# |----0----0----0----0-----0----0----0----0----0-|
 F  |----0----0----2----0-----0----0----2----0----0-|
 C  |----2----3----2----3-----2----3----0----2----3-|  
 G  |----3----3----0----3-----3----3----0----3----3-|
 D# |----x----0----x----0-----x----0----x----x----0-|


 D  |----0----0----0----0-|
 A# |----0----0----0----0-|
 F  |----0----0----2----0-|
 C  |----2----3----2----3-|
 G  |----3----3----0----3-|
 D# |----x----0----x----0-|

(palm muting)
 D  |---------------------|
 A# |---------------------|
 F  |--------------2------|
 C  |----2----3----2----3-|   (x3) 
 G  |----3----3----0----3-|
 D# |----x----0----x----0-|

(without palm muting)

 D  |----0----0----0----0-----0----0----0----0----0-|
 A# |----0----0----0----0-----0----0----0----0----0-|
 F  |----0----0----2----0-----0----0----2----0----0-|
 C  |----2----3----2----3-----2----3----0----2----3-|  
 G  |----3----3----0----3-----3----3----0----3----3-|
 D# |----x----0----x----0-----x----0----x----x----0-|
                                                      
                                                            
 D  |----0----0----0----0-|
 A# |----0----0----0----0-|
 F  |----0----0----2----0-|
 C  |----2----3----2----3-|
 G  |----3----3----0----3-|
 D# |----x----0----x----0-|



 D  |----0----0----0----0-----0----0----0----0----0-|
 A# |----0----0----0----0-----0----0----0----0----0-|
 F  |----0----0----2----0-----0----0----2----0----0-|
 C  |----2----3----2----3-----2----3----0----2----3-|  
 G  |----3----3----0----3-----3----3----0----3----3-|
 D# |----x----0----x----0-----x----0----x----x----0-|
     

 D  |----0----0----0----0-----0----0----0----0----0-|
 A# |----0----0----0----0-----0----0----0----0----0-|
 F  |----0----0----2----0-----0----0----2----0----0-|
 C  |----2----3----2----3-----2----3----0----2----3-|  
 G  |----3----3----0----3-----3----3----0----3----3-|
 D# |----x----0----x----0-----x----0----x----x----0-|
         
 
 D  |----0----0----0----0-|
 A# |----0----0----0----0-|
 F  |----0----0----2----0-|  (x2)
 C  |----2----3----2----3-|
 G  |----3----3----0----3-|
 D# |----x----0----x----0-|

(palm muting)
 D  |---------------------|
 A# |---------------------|
 F  |--------------2------|
 C  |----2----3----2----3-|   (x2) 
 G  |----3----3----0----3-|
 D# |----x----0----x----0-|
Tap to rate this tab
# A B C D E F G H I J K L M N O P Q R S T U V W X Y Z