Song name
# A B C D E F G H I J K L M N O P Q R S T U V W X Y Z

Boyce Avenue - Just The Way You Are tab

Title: Just The Way You Are
Band: Boyce Avenue
Tabbed by: Juhndemar
Tuning: Standard
Capo: 1st fret


INTRO:
e--0------------|------------1----|--0------------|------------1---|
B--------1------|--------1-3------|--------1------|--------1-3-----|
G------0--------|------0----------|------2--------|------2---------|
D----2----------|----2------------|----2----------|----2-----------|
A--3------------|--3--------------|--0------------|--0-------------|
E---------------|-----------------|---------------|----------------|


e--1------------|-----------------|---------------|----------------|
B--------1------|--------1-1-1h3--|--1-----1------|----------------|
G------2--------|------2----------|------0--------|----------------|
D---------------|-----------------|----2----------|----------------|
A----3----------|----3------------|--3------------|--3-------------|
E--1------------|--1--------------|---------------|----------------|

Verse 1
 C
Oh her eyes, her eyes, make the stars look like they're not shining
Am 
Her hair, her hair, falls perfectly without her trying
F                                        C
 She's so beautiful, and I tell her everyday

      C
Yeah, I know, I know when I compliment her she won't believe me
Am
And it's so, it's so sad to think she don't see what I see
F                                             C
 But every time she asks me do I look okay, I say

Chorus 1:

                   C                   Am
When I see your face, there's not a thing that I would change
                F                      C
Cause you're amazing, just the way you are
               C                      Am
And when you smile, the whole world stops and stares for awhile
                    F                        C
Cause girl you're amazing, just the way you are, (yeah)



Verse 2 
C
Her lips, her lips I could kiss them all day if she'd let me
Am
Her laugh, her laugh she hates but I think it's so sexy
F                                      C
She's so beautiful and I tell her everyday,
C    
Oh you know, you know, you know I'd never ask you to change
  Am
If perfect's what you're searching for then just stay the same
  F
So don't even bother asking if you look okay
               C
You know I'll say,

Chorus 2:
                  C                   Am
When I see your face, there's not a thing that I would change
                F                      C
Cause you're amazing, just the way you are
               C                      Am
And when you smile, the whole world stops and stares for awhile
                    F                        C
Cause girl you're amazing, just the way you are
             C                Am                      F
The way you are, the way you are, cause girl you're amazing
                  C
Just the way you are ohh!
             C                Am                      F
The way you are, the way you are, cause girl you're amazing
                  C
Just the way you are.

Outro: (Single Down-strokes)

                   C                   Am
When I see your face, there's not a thing that I would change
                F                      C
Cause you're amazing, just the way you are

(Lightly Strum)
               C                       Am
And when you smile, the whole world stops and stares for awhile
                    F                        C
Cause girl you're amazing, just the way you are






I dedicate this song to my very special friend Fe. ^__^
Tap to rate this tab
 
# A B C D E F G H I J K L M N O P Q R S T U V W X Y Z