Guitaretab - guitar tabs
Song name
# A B C D E F G H I J K L M N O P Q R S T U V W X Y Z

Boys Like Girls - The Great Escape tab

-------------------------------------------------------------------------------
                       THE GREAT ESCAPE  Boys Like Girls
-------------------------------------------------------------------------------
Tabbed by: 0GibsonLesPaul0
Email: -----

Tuning: Standard 
_______________________________________________________________________________
INTRO | 1X

e|-----------------------------------|---------------------------------|
B|-----------------------------------|---------------------------------|
G|-----------------------------------|---------------------------------|
D|-2----1-----------2----1-----------|-7-7-7-7-7-7-7-7-6-6-6-6-6-6-6-6-|
A|----------4----2------------4---2--|-7-7-7-7-7-7-7-7-6-6-6-6-6-6-6-6-|
E|-----------------------------------|-5-5-5-5-5-5-5-5-4-4-4-4-4-4-4-4-|
 |
 |
 |
 |
e|-----------------------------------|---------------------------------|
B|-----------------------------------|---------------------------------|
G|-----9-------9-------9------9------|-9-9-9-9-9-9-9-9-8-8-8-8-8-8-8-8-|
D|---9---9---9---9---9---9-9---9----|-7-7-7-7-7-7-7-7-6-6-6-6-6-6-6-6-|
A|-7-------7-------7------7-------7--|---------------------------------|
E|-----------------------------------|---------------------------------|


VERSE

e|---------------------------------------------------------------------------|
B|---------------------------------------------------------------------------|
G|-2-2-2-2-2-2-2-2------------------6-6-6-6-6-6-6-6--------------------------|
D|-2-2-2-2-2-2-2-2------------------6-6-6-6-6-6-6-6-7-7-7-7-7-7-7-7----------|
A|-0-0-0-0-0-0-0-0-6-6-6-6-6-6-6-6-4-4-4-4-4-4-4-4-7-7-7-7-7-7-7-7----------|
E|-----------------4-4-4-4-4-4-4-4------------------5-5-5-5-5-5-5-5----------|

e|---------------------------------------------------------------------------|
B|---------------------------------------------------------------------------|
G|-----------------4-4-4-4-4-4-4-4-2------------2----------------------------|
D|-2-2-2-2-2-2-2-2-4-4-4-4-4-4-4-4-2------------2----------------------------|
A|-2-2-2-2-2-2-2-2-2-2-2-2-2-2-2-2-0-(let ring)-0----------------------------|
E|-0-0-0-0-0-0-0-0-----------------------------------------------------------|


CHORUS

e|--------------------------------------------------------------------|
B|--------------------------------------------------------------------|
G|-6-6-6-6-6-6-6-6-2-2-2-2-2-2-2-2-----------------4-4-4-4-4-4-4-4----|
D|-6-6-6-6-6-6-6-6-2-2-2-2-2-2-2-2-2-2-2-2-2-2-2-2-4-4-4-4-4-4-4-4----|
A|-4-4-4-4-4-4-4-4-0-0-0-0-0-0-0-0-2-2-2-2-2-2-2-2-2-2-2-2-2-2-2-2----|
E|---------------------------------0-0-0-0-0-0-0-0--------------------|

e|--------------------------------------------------------------------|
B|--------------------------------------------------------------------|
G|-6-6-6-6-6-6-6-6-2-2-2-2-2-2-2-2-----------------4-4-4-4-4-4-4-4----|
D|-6-6-6-6-6-6-6-6-2-2-2-2-2-2-2-2-2-2-2-2-2-2-2-2-4-4-4-4-4-4-4-4----|
A|-4-4-4-4-4-4-4-4-0-0-0-0-0-0-0-0-2-2-2-2-2-2-2-2-2-2-2-2-2-2-2-2----|
E|---------------------------------0-0-0-0-0-0-0-0--------------------|



e|----------------------------------------------------|
B|----------------------------------------------------|
G|----------------------------------------------------|
D|-4-4-4-4-4-4-4-4-6-6-6-6-6-6-6-67-7-7-7-7-7-7-7-9\-|
A|-4-4-4-4-4-4-4-4-6-6-6-6-6-6-6-67-7-7-7-7-7-7-7-9\-|
E|-2-2-2-2-2-2-2-2-4-4-4-4-4-4-4-4-5-5-5-5-5-5-5-5-7\-|


PRE VERSE

e|-----------------------------------|
B|-----------------------------------|
G|-----------------------------------|
D|-2----1-----------2----1-----------|
A|----------4----2------------4---2--|
E|-----------------------------------|
 |
 |
 |
 |
e|----------------------------------|
B|----------------------------------|
G|----------------------------------|
D|--7-7-7-7-7-7-7-7-6-6-6-6-6-6-6-6-|
A|--7-7-7-7-7-7-7-7-6-6-6-6-6-6-6-6-|
E|--5-5-5-5-5-5-5-5-4-4-4-4-4-4-4-4-|


VERSE

e|---------------------------------------------------------------------------|
B|---------------------------------------------------------------------------|
G|-2-2-2-2-2-2-2-2------------------6-6-6-6-6-6-6-6--------------------------|
D|-2-2-2-2-2-2-2-2------------------6-6-6-6-6-6-6-6-7-7-7-7-7-7-7-7----------|
A|-0-0-0-0-0-0-0-0-6-6-6-6-6-6-6-6-4-4-4-4-4-4-4-4-7-7-7-7-7-7-7-7----------|
E|-----------------4-4-4-4-4-4-4-4------------------5-5-5-5-5-5-5-5----------|

e|---------------------------------------------------------------------------|
B|---------------------------------------------------------------------------|
G|-----------------4-4-4-4-4-4-4-4-2------------2----------------------------|
D|-2-2-2-2-2-2-2-2-4-4-4-4-4-4-4-4-2------------2----------------------------|
A|-2-2-2-2-2-2-2-2-2-2-2-2-2-2-2-2-0-(let ring)-0----------------------------|
E|-0-0-0-0-0-0-0-0-----------------------------------------------------------|


CHORUS
[ Tab from: http://www.guitaretab.com/b/boys-like-girls/180064.html ]
e|--------------------------------------------------------------------|
B|--------------------------------------------------------------------|
G|-6-6-6-6-6-6-6-6-2-2-2-2-2-2-2-2-----------------4-4-4-4-4-4-4-4----|
D|-6-6-6-6-6-6-6-6-2-2-2-2-2-2-2-2-2-2-2-2-2-2-2-2-4-4-4-4-4-4-4-4----|
A|-4-4-4-4-4-4-4-4-0-0-0-0-0-0-0-0-2-2-2-2-2-2-2-2-2-2-2-2-2-2-2-2----|
E|---------------------------------0-0-0-0-0-0-0-0--------------------|

e|--------------------------------------------------------------------|
B|--------------------------------------------------------------------|
G|-6-6-6-6-6-6-6-6-2-2-2-2-2-2-2-2-----------------4-4-4-4-4-4-4-4----|
D|-6-6-6-6-6-6-6-6-2-2-2-2-2-2-2-2-2-2-2-2-2-2-2-2-4-4-4-4-4-4-4-4----|
A|-4-4-4-4-4-4-4-4-0-0-0-0-0-0-0-0-2-2-2-2-2-2-2-2-2-2-2-2-2-2-2-2----|
E|---------------------------------0-0-0-0-0-0-0-0--------------------|



e|----------------------------------------------------|
B|----------------------------------------------------|
G|----------------------------------------------------|
D|-4-4-4-4-4-4-4-4-6-6-6-6-6-6-6-67-7-7-7-7-7-7-7-9\-|
A|-4-4-4-4-4-4-4-4-6-6-6-6-6-6-6-67-7-7-7-7-7-7-7-9\-|
E|-2-2-2-2-2-2-2-2-4-4-4-4-4-4-4-4-5-5-5-5-5-5-5-5-7\-|


PRE SOLO

e|-----------------------------------------------------------------|
B|-----------------------------------------------------------------|
G|-2-2-2-2-2-2-2-2---------------------------------4-4-4-4-4-4-4-4-|
D|-2-2-2-2-2-2-2-2-6-6-6-6-6-6-6-6-6-4-4-4-4-4-4-4-4-4-4-4-4-4-4-4-|
A|-0-0-0-0-0-0-0-0-6-6-6-6-6-6-6-6-4-4-4-4-4-4-4-4-2-2-2-2-2-2-2-2-|
E|-----------------4-4-4-4-4-4-4-4-2-2-2-2-2-2-2-2-----------------|


SOLO

e|------------7--------7------------------7--------------|
B|-9-7---9-10---9-7------10-9-9-7---9-10---9-7----------|
G|-----9------------10-------------9------------99998888-|
D|-------------------------------------------------------|
A|-------------------------------------------------------|
E|-------------------------------------------------------|


VERSE
   (play these chords at first) - acoustic

B    A    E    B    Db    A    E    B

during last B chord, play this:


e|-------|
B|-------|
G|-8b9---|
D|-------|
A|-------|
E|-------|


CHORUS

e|--------------------------------------------------------------------|
B|--------------------------------------------------------------------|
G|-6-6-6-6-6-6-6-6-2-2-2-2-2-2-2-2-----------------4-4-4-4-4-4-4-4----|
D|-6-6-6-6-6-6-6-6-2-2-2-2-2-2-2-2-2-2-2-2-2-2-2-2-4-4-4-4-4-4-4-4----|
A|-4-4-4-4-4-4-4-4-0-0-0-0-0-0-0-0-2-2-2-2-2-2-2-2-2-2-2-2-2-2-2-2----|
E|---------------------------------0-0-0-0-0-0-0-0--------------------|

e|--------------------------------------------------------------------|
B|--------------------------------------------------------------------|
G|-6-6-6-6-6-6-6-6-2-2-2-2-2-2-2-2-----------------4-4-4-4-4-4-4-4----|
D|-6-6-6-6-6-6-6-6-2-2-2-2-2-2-2-2-2-2-2-2-2-2-2-2-4-4-4-4-4-4-4-4----|
A|-4-4-4-4-4-4-4-4-0-0-0-0-0-0-0-0-2-2-2-2-2-2-2-2-2-2-2-2-2-2-2-2----|
E|---------------------------------0-0-0-0-0-0-0-0--------------------|

e|--------------------------------------------------------------------|
B|--------------------------------------------------------------------|
G|-6-6-6-6-6-6-6-6-2-2-2-2-2-2-2-2-----------------4-4-4-4-4-4-4-4----|
D|-6-6-6-6-6-6-6-6-2-2-2-2-2-2-2-2-2-2-2-2-2-2-2-2-4-4-4-4-4-4-4-4----|
A|-4-4-4-4-4-4-4-4-0-0-0-0-0-0-0-0-2-2-2-2-2-2-2-2-2-2-2-2-2-2-2-2----|
E|---------------------------------0-0-0-0-0-0-0-0--------------------|

e|----------------------------------------------------|
B|----------------------------------------------------|
G|----------------------------------------------------|
D|-4-4-4-4-4-4-4-4-6-6-6-6-6-6-6-67-7-7-7-7-7-7-7-9\-|
A|-4-4-4-4-4-4-4-4-6-6-6-6-6-6-6-67-7-7-7-7-7-7-7-9\-|
E|-2-2-2-2-2-2-2-2-4-4-4-4-4-4-4-4-5-5-5-5-5-5-5-5-7\-|


OUTRO (just fade out, keep reapeating.)

e|-----------------------------------|---------------------------------|
B|-----------------------------------|---------------------------------|
G|-----------------------------------|---------------------------------|
D|-2----1-----------2----1-----------|-7-7-7-7-7-7-7-7-6-6-6-6-6-6-6-6-|
A|----------4----2------------4---2--|-7-7-7-7-7-7-7-7-6-6-6-6-6-6-6-6-|
E|-----------------------------------|-5-5-5-5-5-5-5-5-4-4-4-4-4-4-4-4-|
 |
 |
 |
 |
e|-----------------------------------|---------------------------------|
B|-----------------------------------|---------------------------------|
G|-----9-------9-------9------9------|-9-9-9-9-9-9-9-9-8-8-8-8-8-8-8-8-|
D|---9---9---9---9---9---9-9---9----|-7-7-7-7-7-7-7-7-6-6-6-6-6-6-6-6-|
A|-7-------7-------7------7-------7--|---------------------------------|
E|-----------------------------------|---------------------------------|

| /  slide up
| \  slide down
| h  hammer-on
| p  pull-off
| ~  vibrato
| +  harmonic
| x  Mute note
===============================================================================

Related for The Great Escape tab