Song name
# A B C D E F G H I J K L M N O P Q R S T U V W X Y Z

Boys Like Girls - Let Go tab

guitar 2:----4---4---4---4---------------------- continues ----> ----4---4--|
         ---7-7-7-7-7-7-7-7---------------------                 ---7-7-7---|
         --6---6---6---6------------------------                 --6---6----|
         ---------------------------------------                 -----------|
         ---------------------------------------                 -----------|
         ---------------------------------------                 -----------|

     repeat            repeat pre chorus
----------------      -------------------          -----------------|
----------------      -------------------          -----------------|
-1-2------------ then ------------------- end with -----------------|
-2-4------------      -9-9-7-6-----------          -9-9-7-6-------9-|
----------------      ---------9-7-6-----          ---------9-7-6---|
----------------      ---------------7---          -----------------|

Chorus         repeat
---4---2---4---2-2-2-0------|   ---4---2---4---2  ----------|  continue with
--2---0---2---0--------4-0--|   --2---0---2----0  ----------|  intro lines
----------------------------|   ----------------------------|
----------------------------|   ----------------------------|
----------------------------|   ----------------------------|
----------------------------|   ----------------------------|

                                   repeat
----4---4---4---4--------       ----------------|
---7-7-7-7-7-7-7---------       ----------------|
--6---6---6---6----------       -1-2------------|       then pre chorus
-------------------------       -2-4------------|
-------------------------       ----------------|
-------------------------       ----------------|

---4---2---4---2-2-2-0------|
--2---0---2---0--------4-0--|
----------------------------|
----------------------------| changes to
----------------------------|
----------------------------|


---4--4----2--2----4--4----2-2-2-0------|
--2--2-2--0--0-0--2--2-2--0--------4-0--|
----------------------------------------|
----------------------------------------|
----------------------------------------|
----------------------------------------|


------------------------------------------|
------------------------------------------|
------------------------------------------| move on to pre chorus
-2--4-44-22--4-4-4-22--4--4-4-22-4--4-4---|
------------------------------------------|
------------------------------------------|

then
---4---2---4---2-2-2-0------|   ---4--4----2--2----4--4----2-2-2-0------|
--2---0---2---0--------4-0--|   --2--2-2--0--0-0--2--2-2--0--------4-0--|
----------------------------|   ----------------------------------------|
----------------------------|   ----------------------------------------|
----------------------------|   ----------------------------------------|
----------------------------|   ----------------------------------------|


---4--4----2--2----4--4----------2---|
--2--2-2--0--0-0--2--2-2--0--0-000---|
-------------------------------------|
-------------------------------------|
-------------------------------------|
-------------------------------------|

repeat entire...            A Little Different Each Time
-99-99-99-99-77-77-55-55-44-44-44-44-44-44-55-55-44-44-44-44-44-44-55-55-44-|
----------------------------5-----5-----5-----55----5-----5-----5-----55----|
----------------------------------------------------------------------------|
----------------------------------------------------------------------------|
----------------------------------------------------------------------------|
----------------------------------------------------------------------------|


44-44-44-22-22-22-22-|
5-----5-----4-----44-|
---------------------|
---------------------|
---------------------|
---------------------|

-99-99-99-99-77-77-55-55-44-44-44-44-44-44-55-55-44-44-44-44-44-44-55-55-44-|
----9-----99----7------5----5-----5-----5-----55----5-----5-----5-----55----|
----------------------------------------------------------------------------|
----------------------------------------------------------------------------|
----------------------------------------------------------------------------|
----------------------------------------------------------------------------|


44-44-44-22-22-22-22-|
5-----5-----4-----44-|
---------------------|
---------------------|
---------------------|
---------------------|

repeat this sect one more time
-9-9-9-9--7-7--5-5--4-4-4-4-4-4--5-5--4-4-4-4-4-4--5-5--4--|
--9-9-9-9--7-7--5-5--5-5-5-5-5-5--5-5--5-5-5-5-5-5--5-5--5-|
-----------------------------------------------------------|
-----------------------------------------------------------|
-----------------------------------------------------------|
-----------------------------------------------------------|

                   end with and hold
4-4-4--2-2-2-2--                   --0--|
-5-5-5--4-4-4-4-                   --0--|
----------------                   -----|
----------------                   -----|
----------------                   -----|
----------------                   -----|


the tab is kinda rough- my first time.
the role of guitar 1 should arrive soon...
hope you can read it!
Tap to rate this tab
 
# A B C D E F G H I J K L M N O P Q R S T U V W X Y Z