Guitaretab - guitar tabs
Song name
# A B C D E F G H I J K L M N O P Q R S T U V W X Y Z

Boys Like Girls - Thunder tab

-----------------------------
| BOYS LIKE GIRLS - THUNDER |
-----------------------------

 Album        : Boys like girls - 2006
 Composed by  : Martin Johnson
 Tabbed by    : Shaquille Adam Jessop Davis
 Dedicated to : Christianna Marie Sirindah Parr

STANDARD TUNING
____________________________________________________________________________________________________

Duration Legend
---------------
W - whole; H - half; Q - quarter; E - 8th; S - 16th; T - 32nd; X - 64th; a - acciaccatura

Misc Legend
-----------
 |  - bar
||  - double bar
||o - repeat start
o|| - repeat end
*|| - double bar (ending)
____________________________________________________________________________________________________


 VERSE 1
 -------

   |GUITAR I - ACOUSTIC|

     Dsus2                   C#/D                    G/D                     A/D       A 
   A/D
     S S S S S S S S S S S S S S S S S S S S S S S S S S S S S S S S S S S S S S S S S S SS S S S
e||-^0-0-0-0-0-0-0-0-0-0-0-0-0-0-0-0-0-0-0-0-0-0-0-0-0-0-0-0-0-0-0-0-0-0-0-0-0-0-0-0-0-0-0-0-0-0-0-|
B||-^3-3-3-3-3-3-3-3-3-3-3-3-3-3-3-3-3-3-3-3-3-3-3-3-3-3-3-3-3-3-3-3-3-3-3-3-3-3-3-3-3-2-2-2-3-3-3-|
G||-^2-2-2-2-2-2-2-2-2-2-2-2-2-2-2-2-2-2-2-2-2-2-2-2-2-2-2-2-2-2-2-2-2-2-2-2-2-2-2-2-2-2-2-2-2-2-2-|
D||-^0-0-0-0-0-0-0-0-0-0-0-0-0-0-0-0-0-0-0-0-0-0-0-0-0-0-0-0-0-0-0-0-0-0-0-0-2-2-2-2-2-2-2-2-2-2-2-|
A||-^0-0-0-0-0-0-0-0-0-0-0-0-4-4-4-4-4-4-4-4-4-4-4-0-0-0-0-0-0-0-0-0-0-0-0-0-0-0-0-0-0-0-0-0-0-0-0-|
E||--------------------------------------------------3-3-3-3-3-3-3-3-3-3-3-------------------------|
 ||
 |||GUITAR II - CLEAN ELECTRIC|
 ||
 ||  H    E  E  E  E  E  E  E  E  E  E  E  E  E  E  E  E  E  E  E  E  E  E  E  E  E  E  E E  E  E
e||-------5-----------5-----------5-----------5-----------5-----------5-----------5-----------5----|
B||-^7-------7-----7-----7-----5-----5-----5-----5-----3-----3-----3-----3-----5-----5-----5-----5-|
G||-^7----------7-----------6-----------6-----------4-----------4-----------6-----------6----------|
D||-^0---------------------------------------------------------------------------------------------|
A||-^0---------------------------------------------------------------------------------------------|
E||------------------------------------------------------------------------------------------------|


   Dsus2                   C#/D                    G/D                     A/D       A   
 A/D
   S S S S S S S S S S S S S S S S S S S S S S S S S S S S S S S S S S S S S S S S S S S SS S S S
e|-0-0-0-0-0-0-0-0-0-0-0-0-0-0-0-0-0-0-0-0-0-0-0-0-0-0-0-0-0-0-0-0-0-0-0-0-0-0-0-0-0-0-0-0-0-0-0-0-||
B|-3-3-3-3-3-3-3-3-3-3-3-3-3-3-3-3-3-3-3-3-3-3-3-3-3-3-3-3-3-3-3-3-3-3-3-3-3-3-3-3-3-2-2-2-3-3-3-3-||
G|-2-2-2-2-2-2-2-2-2-2-2-2-2-2-2-2-2-2-2-2-2-2-2-2-2-2-2-2-2-2-2-2-2-2-2-2-2-2-2-2-2-2-2-2-2-2-2-2-||
D|-0-0-0-0-0-0-0-0-0-0-0-0-0-0-0-0-0-0-0-0-0-0-0-0-0-0-0-0-0-0-0-0-0-0-0-0-2-2-2-2-2-2-2-2-2-2-2-2-||
A|-0-0-0-0-0-0-0-0-0-0-0-0-4-4-4-4-4-4-4-4-4-4-4-0-0-0-0-0-0-0-0-0-0-0-0-0-0-0-0-0-0-0-0-0-0-0-0-0-||
E|-------------------------------------------------3-3-3-3-3-3-3-3-3-3-3---------------------------||
 |
 | E  E  E  E  E  E  E  E  E  E  E  E  E  E  E  E  E  E  E  E  E  E  E  E  E  E  E  E  E 
E  E  E
e|-------5-----------5-----------5-----------5-----------5-----------5-----------5-----------5-----||
B|----7-----7-----7-----7-----5-----5-----5-----5-----3-----3-----3-----3-----5-----5-----5-----5--||
G|-7-----------7-----------6-----------6-----------4-----------4-----------6-----------6-----------||
D|-------------------------------------------------------------------------------------------------||
A|-------------------------------------------------------------------------------------------------||
E|-------------------------------------------------------------------------------------------------||


 PRE-CHORUS
 ----------

   Bm/D         A/D          F#m/D     Dsus2         G/D                      A/D
   E  S S E  E  S S S E  S S E  S S E  E  S S S E  S E  E  S S S E  S S S S S W~
e|-0--0-0-0--0--0-0-0-0--0-0-0--0-0-0--0--0-0-0-0--0-0--0--0-0-0-0--0-0-0-0-0-0~~~~||
B|-3--3-3-3--3--3-3-3-3--3-3-3--3-3-3--3--3-3-3-3--3-3--3--3-3-3-3--3-3-3-3-3-3~~~~||
G|-2--2-2-2--2--2-2-2-2--2-2-2--2-2-2--2--2-2-2-2--2-2--2--2-2-2-2--2-2-2-2-2-2~~~~||
D|-0--0-0-0--0--2-2-2-2--0-0-0--0-0-0--0--0-0-0-0--0-0--0--0-0-0-0--0-0-0-0-0-2~~~~||
A|-2--2-2-2--0--0-0-0-0--0-0-0--0-0-0--0--0-0-0-0--0-0--0--0-0-0-0--0-0-0-0-0-0~~~~||
E|---------------------------2--2-2-2----------------3--3--3-3-3-3--3-3-3-3--------||
 |
 | E  E  E  E  E  E  E  E  E  E  E  E  E  E  E  E  E  E  E  E  E  E  E  E  E  W~
e|-------5-----------5-----------5-----------5--------5-----------5----------------||
B|----7-----7-----5-----5-----5-----5-----7-----7--------7-----------7--------5~~~~||
G|-7-----------------------6--------------------------------7-----------7-----6~~~~||
D|-------------7-----------------------7-----------7-----------7-----------7--7~~~~||
A|---------------------------------------------------------------------------------||
E|---------------------------------------------------------------------------------||


 CHORUS
 ------

     Dsus2                 A/D                   G/D                   Bm/D      A/D
     E  E  S E  S S E  S S E  E  S E  S S E  S S E  E  S E  S S E  S S E  E  S S E  E  S S
e||o-0--0--0-0--0-0-0--0-0-0--0--0-0--0-0-0--0-0-0--0--0-0--0-0-0--0-0-0--0--0-0-0--0--0-0-o||
B||o-3--3--3-3--3-3-3--3-3-3--3--3-3--3-3-3--3-3-3--3--3-3--3-3-3--3-3-3--3--3-3-3--3--3-3-o||
G||o-2--2--2-2--2-2-2--2-2-2--2--2-2--2-2-2--2-2-2--2--2-2--2-2-2--2-2-2--2--2-2-2--2--2-2-o||
D||o-0--0--0-0--0-0-0--0-0-2--2--2-2--2-2-2--2-0-0--0--0-0--0-0-0--0-0-0--0--0-0-2--2--2-2-o||
A||o-0--0--0-0--0-0-0--0-0-0--0--0-0--0-0-0--0-0-0--0--0-0--0-0-0--0-0-2--2--2-0-0--0--0-0-o||
E||o---------------------------------------------3--3--3-3--3-3-3--3-----------------------o||
 ||
 |||GUITAR II - DISTORTION ON|
 ||
 ||  D5                    A5                    G5                    B5         A5
 ||  W    +W     E  S W    W    +W     E  S W    W    +W     E  S W    E  S S S S E  S S S
e||o---------------------------------------------------------------------------------------o||
B||o---------------------------------------------------------------------------------------o||
G||o-7~~~~(7)~~~~7--7-7------------------------------------------------4~~4-4-4------------o||
D||o-7~~~~(7)~~~~7--7-7----7~~~~(7)~~~~7--7-7----5~~~~(5)~~~~5--5-5----4~~4-4-4-x-7--7-7-7-o||
A||o-5~~~~(5)~~~~5--5-5----7~~~~(7)~~~~7--7-7----5~~~~(5)~~~~5--5-5----2~~2-2-2-x-7--7-7-7-o||
E||o-----------------------5~~~~(5)~~~~5--5-5----3~~~~(3)~~~~3--3-3-------------x-5--5-5-5-o||


   G/D                      A/D                 Dsus2
   S S E  S E  S S E  S S S S S E  S E  S S S S S
e|-0-0-0--0-0--0-0-0--0-0-0-0-0-0--0-0--0-0-0-0-0-||
B|-3-3-3--3-3--3-3-3--3-3-3-3-3-3--3-3--3-3-3-3-3-||
G|-2-2-2--2-2--2-2-2--2-2-2-2-2-2--2-2--2-2-2-2-2-||
D|-0-0-0--0-0--0-0-0--0-0-0-2-2-2--2-2--2-2-2-2-0-||
A|-0-0-0--0-0--0-0-0--0-0-0-0-0-0--0-0--0-0-0-0-0-||
E|-3-3-3--3-3--3-3-3--3-3-------------------------||
 |
 | G5                       A5                  D5
 | Q   E  S E  S E  S S S S Q   E  S E  S S S S S
e|------------------------------------------------||
B|------------------------------------------------||
G|----------------------------------------------7-||
D|-5---5--5-5--5-5--5-5-5-5-7---7--7-7--7-7-7-7-7-||
A|-5---5--5-5--5-5--5-5-5-5-7---7--7-7--7-7-7-7-5-||
E|-3---3--3-3--3-3--3-3-3-3-5---5--5-5--5-5-5-5---||


 VERSE 2
 -------

    Dsus2                   C#/D                    G/D                     A/D       A  
  A/D
    S S S S S S S S S S S S S S S S S S S S S S S S S S S S S S S S S S S S S S S S S S SS S S S
e||-0-0-0-0-0-0-0-0-0-0-0-0-0-0-0-0-0-0-0-0-0-0-0-0-0-0-0-0-0-0-0-0-0-0-0-0-0-0-0-0-0-0-0-0-0-0-0-|
B||-3-3-3-3-3-3-3-3-3-3-3-3-3-3-3-3-3-3-3-3-3-3-3-3-3-3-3-3-3-3-3-3-3-3-3-3-3-3-3-3-3-2-2-2-3-3-3-|
G||-2-2-2-2-2-2-2-2-2-2-2-2-2-2-2-2-2-2-2-2-2-2-2-2-2-2-2-2-2-2-2-2-2-2-2-2-2-2-2-2-2-2-2-2-2-2-2-|
D||-0-0-0-0-0-0-0-0-0-0-0-0-0-0-0-0-0-0-0-0-0-0-0-0-0-0-0-0-0-0-0-0-0-0-0-0-2-2-2-2-2-2-2-2-2-2-2-|
A||-0-0-0-0-0-0-0-0-0-0-0-0-4-4-4-4-4-4-4-4-4-4-4-0-0-0-0-0-0-0-0-0-0-0-0-0-0-0-0-0-0-0-0-0-0-0-0-|
E||-------------------------------------------------3-3-3-3-3-3-3-3-3-3-3-------------------------|
 ||
 |||GUITAR II - CLEAN ELECTRIC|
 ||
 ||      E  E  E  E  E  E  E  E  E  E  E  E  E  E  E  E  E  E  E  E  E  E  E  E  E  E  E 
E  E  E
e||------5-----------5-----------5-----------5-----------5-----------5-----------5-----------5----|
B||---------7-----7-----7-----5-----5-----5-----5-----3-----3-----3-----3-----5-----5-----5-----5-|
G||------------7-----------6-----------6-----------4-----------4-----------6-----------6----------|
D||-----------------------------------------------------------------------------------------------|
A||-----------------------------------------------------------------------------------------------|
E||-----------------------------------------------------------------------------------------------|


   Dsus2                   C#/D                    G/D                     A/D       A   
 A/D
   S S S S S S S S S S S S S S S S S S S S S S S S S S S S S S S S S S S S S S S S S S S SS S S S
e|-0-0-0-0-0-0-0-0-0-0-0-0-0-0-0-0-0-0-0-0-0-0-0-0-0-0-0-0-0-0-0-0-0-0-0-0-0-0-0-0-0-0-0-0-0-0-0-0-||
B|-3-3-3-3-3-3-3-3-3-3-3-3-3-3-3-3-3-3-3-3-3-3-3-3-3-3-3-3-3-3-3-3-3-3-3-3-3-3-3-3-3-2-2-2-3-3-3-3-||
G|-2-2-2-2-2-2-2-2-2-2-2-2-2-2-2-2-2-2-2-2-2-2-2-2-2-2-2-2-2-2-2-2-2-2-2-2-2-2-2-2-2-2-2-2-2-2-2-2-||
D|-0-0-0-0-0-0-0-0-0-0-0-0-0-0-0-0-0-0-0-0-0-0-0-0-0-0-0-0-0-0-0-0-0-0-0-0-2-2-2-2-2-2-2-2-2-2-2-2-||
A|-0-0-0-0-0-0-0-0-0-0-0-0-4-4-4-4-4-4-4-4-4-4-4-0-0-0-0-0-0-0-0-0-0-0-0-0-0-0-0-0-0-0-0-0-0-0-0-0-||
E|-------------------------------------------------3-3-3-3-3-3-3-3-3-3-3---------------------------||
 |
 | E  E  E  E  E  E  E  E  E  E  E  E  E  E  E  E  E  E  E  E  E  E  E  E  E  E  E  E  E 
E  E  E
e|-------5-----------5-----------5-----------5-----------5-----------5-----------5-----------5-----||
B|----7-----7-----7-----7-----5-----5-----5-----5-----3-----3-----3-----3-----5-----5-----5-----5--||
G|-7-----------7-----------6-----------6-----------4-----------4-----------6-----------6-----------||
D|-------------------------------------------------------------------------------------------------||
A|-------------------------------------------------------------------------------------------------||
E|-------------------------------------------------------------------------------------------------||


 PRE-CHORUS
 ----------
[ Tab from: http://www.guitaretab.com/b/boys-like-girls/190315.html ]
   Bm/D         A/D          F#m/D     Dsus2          G/D                      A/D
   E  S S E  E  S S S E  S S E  S S E  E  S S E  E  S E  E  S S S E  S S S S S E  E  S E 
S S S E
e|-0--0-0-0--0--0-0-0-0--0-0-0--0-0-0--0--0-0-0--0--0-0--0--0-0-0-0--0-0-0-0-0-0--0--0-0--0-0-0-0--||
B|-3--3-3-3--3--3-3-3-3--3-3-3--3-3-3--3--3-3-3--3--3-3--3--3-3-3-3--3-3-3-3-3-3--3--3-3--3-3-3-3--||
G|-2--2-2-2--2--2-2-2-2--2-2-2--2-2-2--2--2-2-2--2--2-2--2--2-2-2-2--2-2-2-2-2-2--2--2-2--2-2-2-2--||
D|-0--0-0-0--0--2-2-2-2--0-0-0--0-0-0--0--0-0-0--0--0-0--0--0-0-0-0--0-0-0-0-0-2--2--2-2--2-2-2-2--||
A|-2--2-2-2--0--0-0-0-0--0-0-0--0-0-0--0--0-0-0--0--0-0--0--0-0-0-0--0-0-0-0-0-0--0--0-0--0-0-0-0--||
E|---------------------------2--2-2-2-----------------3--3--3-3-3-3--3-3-3-3-----------------------||
 |
 | E  E  E  E  E  E  E  E  E  E  E  E  E  E  E  E  E  E  E  E  E  E  E  E  E  E  E  E  E 
E  E  E
e|-------5-----------5-----------5-----------5-----------------------------------------------------||
B|----7-----7-----5-----5-----5-----5-----7-----7--------7-----------7-----------5-----------5-----||
G|-7-----------------------6--------------------------7-----7-----7-----7-----6-----6-----6-----6--||
D|-------------7-----------------------7-----------7-----------7-----------7-----------7-----------||
A|-------------------------------------------------------------------------------------------------||
E|-------------------------------------------------------------------------------------------------||


 CHORUS
 ------

     Dsus2                 A/D                   G/D                   Bm/D      A/D
     E  E  S E  S S E  S S E  E  S E  S S E  S S E  E  S E  S S E  S S E  E  S S E  E  S S
e||o-0--0--0-0--0-0-0--0-0-0--0--0-0--0-0-0--0-0-0--0--0-0--0-0-0--0-0-0--0--0-0-0--0--0-0-o||
B||o-3--3--3-3--3-3-3--3-3-3--3--3-3--3-3-3--3-3-3--3--3-3--3-3-3--3-3-3--3--3-3-3--3--3-3-o||
G||o-2--2--2-2--2-2-2--2-2-2--2--2-2--2-2-2--2-2-2--2--2-2--2-2-2--2-2-2--2--2-2-2--2--2-2-o||
D||o-0--0--0-0--0-0-0--0-0-2--2--2-2--2-2-2--2-0-0--0--0-0--0-0-0--0-0-0--0--0-0-2--2--2-2-o||
A||o-0--0--0-0--0-0-0--0-0-0--0--0-0--0-0-0--0-0-0--0--0-0--0-0-0--0-0-2--2--2-0-0--0--0-0-o||
E||o---------------------------------------------3--3--3-3--3-3-3--3-----------------------o||
 ||
 |||GUITAR II - DISTORTION ON|
 ||
 ||  D5                    A5                    G5                    B5         A5
 ||  W    +W     E  S W    W    +W     E  S W    W    +W     E  S W    E  S S S S E  S S S
e||o---------------------------------------------------------------------------------------o||
B||o---------------------------------------------------------------------------------------o||
G||o-7~~~~(7)~~~~7--7-7------------------------------------------------4~~4-4-4------------o||
D||o-7~~~~(7)~~~~7--7-7----7~~~~(7)~~~~7--7-7----5~~~~(5)~~~~5--5-5----4~~4-4-4-x-7--7-7-7-o||
A||o-5~~~~(5)~~~~5--5-5----7~~~~(7)~~~~7--7-7----5~~~~(5)~~~~5--5-5----2~~2-2-2-x-7--7-7-7-o||
E||o-----------------------5~~~~(5)~~~~5--5-5----3~~~~(3)~~~~3--3-3-------------x-5--5-5-5-o||


   G/D                      A/D
   S S E  S E  S S E  S S S S S E  S E  S S S S
e|-0-0-0--0-0--0-0-0--0-0-0-0-0-0--0-0--0-0-0-0-||
B|-3-3-3--3-3--3-3-3--3-3-3-3-3-3--3-3--3-3-3-3-||
G|-2-2-2--2-2--2-2-2--2-2-2-2-2-2--2-2--2-2-2-2-||
D|-0-0-0--0-0--0-0-0--0-0-0-2-2-2--2-2--2-2-2-2-||
A|-0-0-0--0-0--0-0-0--0-0-0-0-0-0--0-0--0-0-0-0-||
E|-3-3-3--3-3--3-3-3--3-3-----------------------||
 |
 | G5                       A5
 | Q   E  S E  S E  S S S S Q   E  S E  S S S S
e|----------------------------------------------||
B|----------------------------------------------||
G|----------------------------------------------||
D|-5---5--5-5--5-5--5-5-5-5-7---7--7-7--7-7-7-7-||
A|-5---5--5-5--5-5--5-5-5-5-7---7--7-7--7-7-7-7-||
E|-3---3--3-3--3-3--3-3-3-3-5---5--5-5--5-5-5-5-||

 BRIDGE
 ------

   Em7           G/D              A/D             G/D
   S S S E  S E  E  E  S E  S S S S S S S E  E  S E  E  S E  S S S
e|-0-0-0-0--0-0--0--0--0-0--0-0-0-0-0-0-0-0--0--0-0--0--0-0--0-0-0-|
B|-3-3-3-3--3-3--3--3--3-3--3-3-3-3-3-3-3-3--3--3-3--3--3-3--3-3-3-|
G|-0-0-0-0--0-0--2--2--2-2--2-2-2-2-2-2-2-2--2--2-2--2--2-2--2-2-2-|
D|-2-2-2-2--2-2--0--0--0-0--0-0-0-2-2-2-2-2--2--0-0--0--0-0--0-0-0-|
A|-2-2-2-2--2-2--0--0--0-0--0-0-0-0-0-0-0-0--0--0-0--0--0-0--0-0-0-|
E|---------------3--3--3-3--3-3-------------------3--3--3-3--3-3-3-|
 |
 | Em5           G5               A5                     G5
 | E  S E  S S S E  E  S E  S S S S S S S E  W    S S S E  S S S S
e|-----------------------------------------------------------------|
B|-----------------------------------------------------------------|
G|-----------------------------------------------------------------|
D|-2--2-2--2-2-2-5--5--5-5--5-5-5-7-7-7-7-7--7----x-x-5-5--5-5-5-5-|
A|-2--2-2--2-2-2-5--5--5-5--5-5-5-7-7-7-7-7--7----x-x-5-5--5-5-5-5-|
E|-0--0-0--0-0-0-3--3--3-3--3-3-3-5-5-5-5-5--5----x-X-3-3--3-3-3-3-|


   Em7           G/D              A/D                            G5
   S S S E  S E  E  E  S E  S S S S S S S E  E  S E  E  S E  S S S S E  S E  S E  S S S S
e|-0-0-0-0--0-0--0--0--0-0--0-0-0-0-0-0-0-0--0--0-0--0--0-0--0-0-0-0-0--0-0--0-0--0-0-0-0-||
B|-3-3-3-3--3-3--3--3--3-3--3-3-3-3-3-3-3-3--3--3-3--3--3-3--3-3-3-3-3--3-3--3-3--3-3-3-3-||
G|-0-0-0-0--0-0--2--2--2-2--2-2-2-2-2-2-2-2--2--2-2--2--2-2--2-2-2-2-2--2-2--2-2--2-2-2-2-||
D|-2-2-2-2--2-2--0--0--0-0--0-0-0-2-2-2-2-2--2--2-2--2--2-2--2-0-0-0-0--0-0--0-0--0-0-0-0-||
A|-2-2-2-2--2-2--0--0--0-0--0-0-0-0-0-0-0-0--0--0-0--0--0-0--0-0-0-3-3--3-3--3-3--3-3-3-3-||
E|---------------3--3--3-3--3-3----------------------------------3-3-3--3-3--3-3--3-3-3-3-||
 |
 |
 | E  S E  S S S E  E  S E  S S S S S S S E  E  S E  E  S E  S S S S E  S E  S E  S S S
e|----------------------------------------------------------------------------------------||
B|-------------------------------------------------------------------------------------(R)||
G|-------------------------------------------------------------------------------------(E)||
D|-2--2-2--2-2-2-5--5--5-5--5-5-5-7-7-7-7-7--7--7-7--7--7-7--7-7-5-5-5--5-5--5-5--5-5-5(S)||
A|-2--2-2--2-2-2-5--5--5-5--5-5-5-7-7-7-7-7--7--7-7--7--7-7--7-7-5-5-5--5-5--5-5--5-5-5(T)||
E|-0--0-0--0-0-0-3--3--3-3--3-3-3-5-5-5-5-5--5--5-5--5--5-5--5-5-3-3-3--3-3--3-3--3-3-3---||


 PRE-CHORUS 2
 ------------

   Dsus2                   C#/D                    G/D                     A/D
   S S S S S S S S S S S S S S S S S S S S S S S S S S S S S S S S S S S S W~
e|-0-0-0-0-0-0-0-0-0-0-0-0-0-0-0-0-0-0-0-0-0-0-0-0-0-0-0-0-0-0-0-0-0-0-0-0-0~~~~||
B|-3-3-3-3-3-3-3-3-3-3-3-3-3-3-3-3-3-3-3-3-3-3-3-3-3-3-3-3-3-3-3-3-3-3-3-3-3~~~~||
G|-2-2-2-2-2-2-2-2-2-2-2-2-2-2-2-2-2-2-2-2-2-2-2-2-2-2-2-2-2-2-2-2-2-2-2-2-2~~~~||
D|-0-0-0-0-0-0-0-0-0-0-0-0-0-0-0-0-0-0-0-0-0-0-0-0-0-0-0-0-0-0-0-0-0-0-0-0-2~~~~||
A|-0-0-0-0-0-0-0-0-0-0-0-0-4-4-4-4-4-4-4-4-4-4-4-0-0-0-0-0-0-0-0-0-0-0-0-0-0~~~~||
E|-------------------------------------------------3-3-3-3-3-3-3-3-3-3-3--------||
 |
e|------------------------------------------------------------------------------||
B|------------------------------------------------------------------------------||
G|------------------------------------------------------------------------------||
D|------------------------------------------------------------------------------||
A|------------------------------------------------------------------------------||
E|------------------------------------------------------------------------------||


 OUTRO CHORUS
 ------------

     Dsus2                 A/D                   G/D                   Bm/D      A/D
     E  E  S E  S S E  S S E  E  S E  S S E  S S E  E  S E  S S E  S S E  E  S S E  E  S S
e||o-0--0--0-0--0-0-0--0-0-0--0--0-0--0-0-0--0-0-0--0--0-0--0-0-0--0-0-0--0--0-0-0--0--0-0-o|-------|
B||o-3--3--3-3--3-3-3--3-3-3--3--3-3--3-3-3--3-3-3--3--3-3--3-3-3--3-3-3--3--3-3-3--3--3-3-o|(R)----|
G||o-2--2--2-2--2-2-2--2-2-2--2--2-2--2-2-2--2-2-2--2--2-2--2-2-2--2-2-2--2--2-2-2--2--2-2-o|(E)----|
D||o-0--0--0-0--0-0-0--0-0-2--2--2-2--2-2-2--2-0-0--0--0-0--0-0-0--0-0-0--0--0-0-2--2--2-2-o|(S)----|
A||o-0--0--0-0--0-0-0--0-0-0--0--0-0--0-0-0--0-0-0--0--0-0--0-0-0--0-0-2--2--2-0-0--0--0-0-o|(T)----|
E||o---------------------------------------------3--3--3-3--3-3-3--3-----------------------o|-------|
 ||
 |||GUITAR II - DISTORTION ON|
 ||
 ||  D5                    A5                    G5                    B5         A5     
       D5
 ||  W    +W     E  S W    W    +W     E  S W    W    +W     E  S W    E  S S S S E  S S 
      Q
e||o---------------------------------------------------------------------------------------o|-------|
B||o---------------------------------------------------------------------------------------o|(R)----|
G||o-7~~-~(7)~~~~7--7-7------------------------------------------------4~~4-4-4------------o|(E)-7--|
D||o-7~~~~(7)~~~~7--7-7----7~~~~(7)~~~~7--7-7----5~~~~(5)~~~~5--5-5----4~~4-4-4-x-7--7-7-7-o|(S)-7--|
A||o-5~~~~(5)~~~~5--5-5----7~~~~(7)~~~~7--7-7----5~~~~(5)~~~~5--5-5----2~~2-2-2-x-7--7-7-7-o|(T)-5--|
E||o-----------------------5~~~~(5)~~~~5--5-5----3~~~~(3)~~~~3--3-3-------------x-5--5-5-5-o|-------|


   Dsus2                 A/D                   G/D                   Bm/D      A/D
   E  E  S E  S S E  S S E  E  S E  S S E  S S E  E  S E  S S E  S S E  E  S S E  E  S S
e|-0--0--0-0--0-0-0--0-0-0--0--0-0--0-0-0--0-0-0--0--0-0--0-0-0--0-0-0--0--0-0-0--0--0-0-|
B|-3--3--3-3--3-3-3--3-3-3--3--3-3--3-3-3--3-3-3--3--3-3--3-3-3--3-3-3--3--3-3-3--3--3-3-|
G|-2--2--2-2--2-2-2--2-2-2--2--2-2--2-2-2--2-2-2--2--2-2--2-2-2--2-2-2--2--2-2-2--2--2-2-|
D|-0--0--0-0--0-0-0--0-0-2--2--2-2--2-2-2--2-0-0--0--0-0--0-0-0--0-0-0--0--0-0-2--2--2-2-|
A|-0--0--0-0--0-0-0--0-0-0--0--0-0--0-0-0--0-0-0--0--0-0--0-0-0--0-0-2--2--2-0-0--0--0-0-|
E|---------------------------------------------3--3--3-3--3-3-3--3-----------------------|
 |
 | D5                    A5                    G5                    B5         A5
 | W    +W     E  S W    W    +W     E  S W    W    +W     E  S W    E  S S S S E  S S S
e|---------------------------------------------------------------------------------------|
B|---------------------------------------------------------------------------------------|
G|-7~~~~(7)~~~~7--7-7------------------------------------------------4~~4-4-4------------|
D|-7~~~~(7)~~~~7--7-7----7~~~~(7)~~~~7--7-7----5~~~~(5)~~~~5--5-5----4~~4-4-4-x-7--7-7-7-|
A|-5~~~~(5)~~~~5--5-5----7~~~~(7)~~~~7--7-7----5~~~~(5)~~~~5--5-5----2~~2-2-2-x-7--7-7-7-|
E|-----------------------5~~~~(5)~~~~5--5-5----3~~~~(3)~~~~3--3-3-------------x-5--5-5-5-|


   G/D                      A/D
   S S E  S E  S S E  S S S S S E  S E  S S S S
e|-0-0-0--0-0--0-0-0--0-0-0-0-0-0--0-0--0-0-0-0-||
B|-3-3-3--3-3--3-3-3--3-3-3-3-3-3--3-3--3-3-3-3-||
G|-2-2-2--2-2--2-2-2--2-2-2-2-2-2--2-2--2-2-2-2-||
D|-0-0-0--0-0--0-0-0--0-0-0-2-2-2--2-2--2-2-2-2-||
A|-0-0-0--0-0--0-0-0--0-0-0-0-0-0--0-0--0-0-0-0-||
E|-3-3-3--3-3--3-3-3--3-3-----------------------||
 |
 | G5                       A5
 | Q   E  S E  S E  S S S S Q   E  S E  S S S S
e|----------------------------------------------||
B|----------------------------------------------||
G|----------------------------------------------||
D|-5---5--5-5--5-5--5-5-5-5-7---7--7-7--7-7-7-7-||
A|-5---5--5-5--5-5--5-5-5-5-7---7--7-7--7-7-7-7-||
E|-3---3--3-3--3-3--3-3-3-3-5---5--5-5--5-5-5-5-||


   G/D                      A/D  Dsus2
   S S E  S E  S S E  S S S W~   W~
e|-0-0-0--0-0--0-0-0--0-0-0-0~~~~0~~~~*||
B|-3-3-3--3-3--3-3-3--3-3-3-3~~~~3~~~~*||
G|-2-2-2--2-2--2-2-2--2-2-2-2~~~~2~~~~*||
D|-0-0-0--0-0--0-0-0--0-0-0-2~~~~0~~~~*||
A|-0-0-0--0-0--0-0-0--0-0-0-0~~~~0~~~~*||
E|-3-3-3--3-3--3-3-3--3-3-------------*||
 |
 | G5                       A5   D5
 | Q   E  S E  S E  S S S S W~   W~
e|------------------------------------*||
B|------------------------------------*||
G|-------------------------------7----*||
D|-5---5--5-5--5-5--5-5-5-5-7~~~~7~~~~*||
A|-5---5--5-5--5-5--5-5-5-5-7~~~~5~~~~*||
E|-3---3--3-3--3-3--3-3-3-3-5~~~~5~~~~*||

END!!
PLEASE RATE AND COMMENT! =)
______________________________________________________________________________________________
Related for Thunder tab