Song name
# A B C D E F G H I J K L M N O P Q R S T U V W X Y Z

Boys Like Girls - Thunder Acoustic tab

Okay, just putting it up the way they play it in open tuning.  

This song on the CD is played in open D, but acoustic they drop it to open C. 
I'm just going to put up the notes, you can figure out the strumming on your own with the song.  

Guitar 1(Martin)
Guitar 2(Paul)


Intro and Verse (Guitar 1)

C--0--0--0--0--|
G--5--5--5--5--|
E--3--3--3--3--|
C--0--0--0-----| Repeat until pre-chorus 
G--0--4--0--0--|
C--0--0--5-----|


Intro and Verse (Guitar 2)

C------7-------7--------7-------7----------7-------5------|
G----9---9---9---9----7---7---7---7------5---5---5---5----|
E--8-------8--------7-------7-------7--5-------5-------7--|
C---------------------------------------------------------|
G---------------------------------------------------------|
C---------------------------------------------------------|  


Pre-Chorus (Guitar 1)

C--0--0--0--0--0--|  
G--5--5--5--5--5--|
E--3--3--3--3--3--|
C--0--0--0--0-----|
G--5--0--4--0--0--|
C-----------5-----|


Pre-Chorus (Guitar 2)

C------7--------7--------5--------7--------7-------7------|  
G----9---9-------------5---5----9---9----5---5---5---5----|
E--8----------8---8--5--------8---------------------------|
C-----------7--------------------------5-------5-------7--|
G---------------------------------------------------------|
C---------------------------------------------------------|



Chorus(Guitar 1 & 2)

C--0--0--0--0--0--------0--0--|                                                                
G--0--0--0--0--0--------0--0--|                                                           
E--0-------------x2-----------|                                                              
C--0--7--5--9--7--------5--7--|                                                          
G--0--7--5--9--7--------5--7--|                                                           
C--0--7--5--9--7--------5--7--|                                                           


Verse 2 (Guitar 1)

C--0--0--0--0--|
G--5--5--5--5--|
E--3--3--3--3--|x2
C--0--0--0-----|  
G--0--4--0--0--|
C--0--0--5-----|


Verse 2 (Guitar 2)

C------7-------7--------7-------7----------7-------5------|
G----9---9---9---9----7---7---7---7------5---5---5---5----|
E--8-------8--------7-------7-------7--5-------5-------7--|
C---------------------------------------------------------|x2
G---------------------------------------------------------|
C---------------------------------------------------------| 



Pre-Chorus (Guitar 1)

C--0--0--0--0--0--|  
G--5--5--5--5--5--|
E--3--3--3--3--3--|
C--0--0--0--0-----|
G--5--0--4--0--0--|
C-----------5-----|


Pre-Chorus (Guitar 2)

C------7--------7--------5--------7--------7-------7------|  
G----9---9-------------5---5----9---9----5---5---5---5----|
E--8----------8---8--5--------8---------------------------|
C-----------7--------------------------5-------5-------7--|
G---------------------------------------------------------|
C---------------------------------------------------------|



Chorus(Guitar 1 & 2)

C--0--0--0--0--0--------0--0--|                                                                
G--0--0--0--0--0--------0--0--|                                                           
E--0-------------x2-----------|                                                              
C--0--7--5--9--7--------5--7--|                                                          
G--0--7--5--9--7--------5--7--|                                                           
C--0--7--5--9--7--------5--7--|                                                           




Bridge (Guitar 1 & 2) 

C--0--0--0--0--0--0--0--0--|
G--0--0--0--0--0--0--0--0--|
E--------------0-----------|
C--2--9--7--5--0--9--7--5--|
G--2--9--7--5--0--9--7--5--|
C--2--9--7--5--0--9--7--5--|



Intro chords (Guitar 1)

C--0--0--0--0--|
G--5--5--5--5--|
E--3--3--3--3--|
C--0--0--0-----|  
G--0--4--0--0--|
C--0--0--5-----|



Chorus(Guitar 1 & 2)

C--0--0--0--0--0--------0--0--0--|                                                                
G--0--0--0--0--0--------0--0--0--|                                                           
E--0-------------x2--------------|                                                              
C--0--7--5--9--7--------5--7--0--|                                                          
G--0--7--5--9--7--------5--7--0--|                                                           
C--0--7--5--9--7--------5--7--0--|                                                           

Thanks, and enjoy!!

Let me know what you think, SLeinenbach01@yahoo.com

Tap to rate this tab
# A B C D E F G H I J K L M N O P Q R S T U V W X Y Z