Song name
# A B C D E F G H I J K L M N O P Q R S T U V W X Y Z

Boys Like Girls - Heart Heart Heartbreak tab

Sorry it wasnt in my tab, but here it is now.

E---------------------------------------------|
B---------------11---------------11-12-11-----|
G-9-9-7-9-9-7-9----7-9-7-9-7-9-9------------7-|
D---------------------------------------------|
A---------------------------------------------|
D---------------------------------------------|

hammers and pull offs

E-10-7------10-7------10-7------10-7----------|
B------10-7------10-7------10-7------10--7----|
G---------------------------------------------|
D---------------------------------------------|
A---------------------------------------------|
D---------------------------------------------|

E-12-10-------12-10-------12-10-------12--10-------|
B-------12-10-------12-10-------12-10--------12-10-|
G--------------------------------------------------|
D--------------------------------------------------|
A--------------------------------------------------|
D--------------------------------------------------|

E-12-10-------12-10-------12-10-------12--10-------|
B-------12-10-------12-10-------12-10--------12-10-|
G--------------------------------------------------|
D--------------------------------------------------|
A--------------------------------------------------|
D--------------------------------------------------|

E-10-12-10-17-10-12-10-17-10-12-10-19-14 -17--| \
B---------------------------------------------|
G---------------------------------------------|
D---------------------------------------------|
A---------------------------------------------|
D---------------------------------------------|
Tap to rate this tab
# A B C D E F G H I J K L M N O P Q R S T U V W X Y Z