Song name
# A B C D E F G H I J K L M N O P Q R S T U V W X Y Z

Boys Like Girls - Shes Got A Boyfriend Now tab

Standard Tuning
EADGBE

First tab! Comment and rate please!

Intro:
|----------------------------------------------|
|---3----33---3---33---3---33---3------33------|
|---2----22---2---22---2---22---2------22------|
|-0----0---------------------------------------|x4
|----------0----0------------------------------|
|--------------------2---2----3----3/5---------|


Verse:

Guitar 1
|----------------------------------------------|
|---3----33---3---33---3---33---3------33------|
|---2----22---2---22---2---22---2------22------|
|-0----0---------------------------------------|x4
|----------0----0------------------------------|
|--------------------2---2----3----3/5---------|

Guitar 2 (comes in when he says "singing everythings gonna be alright..)
|-----------------------------------------------|
|-----------------------------------------------|
|-----------------------------------------------|
|-5-55---7-77---9-99---7-77---------------------|
|-5-55---7-77---9-99---7-77---------------------|
|-3-33---5-55---7-77---5-55---------------------|


Pre-Chorus

|----------------------------------------------|
|----------------------------------------------|
|----------------------------------------------|
|-5~-------------7~---------xxxx---------------|
|-5~-------------7~---------xxxx---------------|
|-3~-------------5~---------xxxx---------------|


Chorus

|------------------------------------------|
|------------------------------------------|
|------------------------------------------|
|-5-----7-----9-----7-7-7-7-x-7-x-7--------|x2
|-5x8---7x8---9x8---7-7-7-7-x-7-x-7--------|
|-3-----5-----7-----5-5-5-5-x-5-x-5--------|

|------------------------------------------|
|------------------------------------------|
|------------------------------------------|
|-5-5-5-5----7-7-7-7-----------------------|
|-5-5-5-5----7-7-7-7-----------------------|
|-3-3-3-3----5-5-5-5-----------------------|

|------------------------------------------|
|------------------------------------------|
|-7----------------------------------------|
|-7x8--5----9----77--7--7------------------|
|-5----5x8--9x8--77--7--7------------------|
|------3----7----55--5--5------------------|


Break

|----------------------------------------------|
|---3----33---3---33---3---33---3------33------|
|---2----22---2---22---2---22---2------22------|
|-0----0---------------------------------------|
|----------0----0------------------------------|
|--------------------2---2----3----3/5---------|


Verse 2:

Guitar 1:
|----------------------------------------------|
|---3----33---3---33---3---33---3------33------|
|---2----22---2---22---2---22---2------22------|
|-0----0---------------------------------------|x4
|----------0----0------------------------------|
|--------------------2---2----3----3/5---------|

Guitar 2:
|-----------------------------------------------|
|-----------------------------------------------|
|-7---------------------------------------------|
|-7x8-9----4----5--/7------5----7----9----7-----|
|-5---9x8--4x8--5x4/7x4----5x8--7x8--9x8--7x8---|
|-----7----2----3--/5------3----5----7----5-----|

|---------------------------------------------------|
|---------------------------------------------------|
|-7--7----------------------------------------------|
|-7--7-9--9/4--4/5-5/7--7--5----7----9----7---------|
|-5--5-9--9/4--4/5-5/7--7--5x8--7x8--9x8--7x8-------|
|------7--7/2--2/3-3/5--5--3----5----7----5---------|


Pre-Chorus

|----------------------------------------------|
|----------------------------------------------|
|----------------------------------------------|
|-5~-------------7~---------------xxxx---------|
|-5~-------------7~---------------xxxx---------|
|-3~-------------5~---------------xxxx---------|


Chorus

|------------------------------------------|
|------------------------------------------|
|------------------------------------------|
|-5-----7-----9-----7-7-7-7-x-7-x-7--------|x2
|-5x8---7x8---9x8---7-7-7-7-x-7-x-7--------|
|-3-----5-----7-----5-5-5-5-x-5-x-5--------|

|------------------------------------------|
|------------------------------------------|
|------------------------------------------|
|-5-5-5-5----7-7-7-7-----------------------|
|-5-5-5-5----7-7-7-7-----------------------|
|-3-3-3-3----5-5-5-5-----------------------|

|------------------------------------------|
|------------------------------------------|
|-7----------------------------------------|
|-7x8--5----9----77--7--7------------------|
|-5----5x8--9x8--77--7--7------------------|
|------3----7----55--5--5------------------|


Bridge

|------------------------------------------|
|------------------------------------------|
|------------------------------------------|
|-5-----7-----9-----7----------------------|
|-5x16--7x8---9x4---7x4--------------------|x2
|-3-----5-----7-----5----------------------|

|----------------------------------------|
|----------------------------------------|
|-7/-------------------------------------|
|-7/-------------------------------------|
|-5/-------------------------------------|
|----------------------------------------|


Intro

|----------------------------------------------|
|---3----33---3---33---3---33---3------33------|
|---2----22---2---22---2---22---2------22------|
|-0----0---------------------------------------|x2
|----------0----0------------------------------|
|--------------------2---2----3----3/5---------|


Chorus

|------------------------------------------|
|------------------------------------------|
|------------------------------------------|
|-5-----7-----9-----7-7-7-7-x-7-x-7--------|x2
|-5x8---7x8---9x8---7-7-7-7-x-7-x-7--------|
|-3-----5-----7-----5-5-5-5-x-5-x-5--------|

|------------------------------------------|
|------------------------------------------|
|------------------------------------------|
|-5-5-5-5----7-7-7-7-----------------------|
|-5-5-5-5----7-7-7-7-----------------------|
|-3-3-3-3----5-5-5-5-----------------------|

|------------------------------------------|
|------------------------------------------|
|-7----------------------------------------|
|-7x8--5----7-7-7-7--9-9-9-9---------------|
|-5----5x8--7-7-7-7--9-9-9-9---------------|
|------3----5-5-5-5--7-7-7-7---------------|

|------------------------------------------|
|------------------------------------------|
|-7----------------------------------------|
|-7x8--5----9----77--7--7------------------|
|-5----5x8--9x8--77--7--7------------------|
|------3----7----55--5--5------------------|


Outro

Guitar 1:
|----------------------------------------------|
|---3----33---3---33---3---33---3------33------|
|---2----22---2---22---2---22---2------22------|
|-0----0---------------------------------------|x3
|----------0----0------------------------------|
|--------------------2---2----3----3/5---------|

Guitar 2:
|------------------------------|
|------------------------------|
|-7--77------------------------|
|-7--77--9--9/4--4/5-5/7-------|x4
|-5--55--9--9/4--4/5-5/7-------|
|--------7--7/2--2/3-3/5-------|
Tap to rate this tab
 
# A B C D E F G H I J K L M N O P Q R S T U V W X Y Z