Song name
# A B C D E F G H I J K L M N O P Q R S T U V W X Y Z

Boys Like Girls - Two Is Better Than One tab

This song is in Open C Tuning. So its C G C G C E.

Intro:
    C
E|----------------------------------------------------|
C|--------0---------0---------0--------0--------------|
G|------0--------0----------0--------0----------------|
C|----7--------7----------7--------7------------------|
G|----------------------------------------------------|
C|--0------(0)--------(0)-------(0)-------------------|


Verse:
    C
E|----------------------------------------------------|
C|--------0---------0---------0--------0--------------|
G|------0--------0----------0--------0----------------|
C|----7--------7----------7--------7------------------|
G|----------------------------------------------------|
C|--0------(0)--------(0)-------(0)-------------------|

C
I remember what you wore on the first day

   Am
E|----------------------------------------------------|
C|--------0---------0-----------0--------0------------|
G|------0---------0-----------0--------0--------------|
C|----11--------11----------11------11----------------|
G|----------------------------------------------------|
C|--9------(9)--------(9)-------(9)-------------------|

Am
You came into my life and i thought hey
    F                    G
E|----------------------------------------------------|
C|--------0---------0---------0---------0-------------|
G|------0--------0----------0---------0---------------|
C|----7--------7----------7---------7-----------------|
G|----------------------------------------------------|
C|--5------(5)----------7--------(7)------------------|

F               G             C
You know, this could be somethin'.
    C
E|----------------------------------------------------|
C|--------0---------0---------0--------0--------------|
G|------0--------0----------0--------0----------------|
C|----7--------7----------7--------7------------------|
G|----------------------------------------------------|
C|--0------(0)--------(0)-------(0)-------------------|

(repeats from beginning of verse)

Chorus:
    F
E|----------------------------------------------------|
C|--------0---------0-----------0---------0-----------|
G|------0--------0------------0---------0-------------|
C|----7--------7------------7---------7---------------|
G|----------------------------------------------------|
C|--5------(5)----------(5)--------(5)----------------|

             F
Maybe it's true

    G
E|----------------------------------------------------|
C|--------0---------0-----------0---------0-----------|
G|------0--------0------------0---------0-------------|
C|----7--------7------------7---------7---------------|
G|----------------------------------------------------|
C|--7------(7)----------(7)--------(7)----------------|

              G
That I can't live without you

    F
E|----------------------------------------------------|
C|--------0---------0-----------0---------0-----------|
G|------0--------0------------0---------0-------------|
C|----7--------7------------7---------7---------------|
G|----------------------------------------------------|
C|--5------(5)----------(5)--------(5)----------------|

      F
Maybe two
    G
E|----------------------------------------------------|
C|--------0---------0-----------0---------0-----------|
G|------0--------0------------0---------0-------------|
C|----7--------7------------7---------7---------------|
G|----------------------------------------------------|
C|--7------(7)----------(7)--------(7)----------------|

          G
Is better than one
    F
E|----------------------------------------------------|
C|--------0---------0-----------0---------0-----------|
G|------0--------0------------0---------0-------------|
C|----7--------7------------7---------7---------------|
G|----------------------------------------------------|
C|--5------(5)----------(5)--------(5)----------------|

                 F
There's so much time
    G
E|----------------------------------------------------|
C|--------0---------0-----------0---------0-----------|
G|------0--------0------------0---------0-------------|
C|----7--------7------------7---------7---------------|
G|----------------------------------------------------|
C|--7------(7)----------(7)--------(7)----------------|

    G
To figure out the rest of my life

    Am     G     F    C
E|--0------0-----0----0--------------------------------|
C|--0------0-----0----0--------------------------------|
G|--0------0-----0----0--------------------------------|
C|--9------7-----5----0--------------------------------|
G|--9------7-----5----0--------------------------------|
C|--9------7-----5----0--------------------------------|

           Am          G            F
But You've already got me comin' undone

           Am      G           C
I'm thinkin two is better than one


2nd verse and chorus is the same as 1st (as far as guitar goes)

Bridge

    F      Am     F     Am
E|--0------0------0-----0-----------------------------|
C|--0------0------0-----0-----------------------------|
G|--0------0------0-----0-----------------------------|
C|--5------9------5-----9-----------------------------|
G|--5------9------5-----9-----------------------------|
C|--5------9------5-----9-----------------------------|


    C
E|----------------------------------------------------|
C|--------0---------0---------0--------0--------------|
G|------0--------0----------0--------0----------------|
C|----7--------7----------7--------7------------------|
G|----------------------------------------------------|
C|--0------(0)--------(0)-------(0)-------------------|

C
I remember what you wore on the first day

   Am
E|--------------------------------------------0--------|
C|--------0---------0-----------0--------0----0--------|
G|------0---------0-----------0--------0------0--------|
C|----11--------11----------11------11--------9--------|
G|--------------------------------------------9--------|
C|--9------(9)--------(9)-------(9)-----------9--------|

Am
You came into my life and i thought hey


Final Chorus


    F      G     Am   C
E|--0------0-----0----0--------------------------------|
C|--0------0-----0----0--------------------------------|
G|--0------0-----0----0--------------------------------|
C|--5------7-----9----0--------------------------------|
G|--5------7-----9----0--------------------------------|
C|--5------7-----9----0--------------------------------|

           F                 G
Maybe it's true that I can't live without you

      F                G
Maybe two is better than one

                F       G
There's so much time to figure out the rest of my life

        Am           G        F
And you already have me comin undone.

            F             G
I'm thinkin ooooo I can't live without you

    F                G
And two is better than one

                F       G
There's so much time to figure out the rest of my life

         Am                 G               F
But I'll figure it out when all is said and done

Am     G           C
Two is better than one
Tap to rate this tab
# A B C D E F G H I J K L M N O P Q R S T U V W X Y Z